  0
SECTION
  2
HEADER
  9
$ACADVER
  1
AC1006
  9
$AXISMODE
 70
     0
  9
$AXISUNIT
 10
0.0625
 20
0.0625
  9
$CECOLOR
 62
0
  9
$CELTYPE
  6
CONTINUOUS
  9
$CLAYER
  8
LAYER1
  9
$EXTMIN
 10
0
 20
0
  9
$EXTMAX
 10
14.3785
 20
10.8923
  9
$LIMMIN
 10
0
 20
0
  9
$LIMMAX
 10
14.3785
 20
10.8923
  9
$GRIDMODE
 70
     0
  9
$GRIDUNIT
 10
0.125
 20
0.125
  9
$MIRRTEXT
 70
     1
  9
$SNAPMODE
 70
     1
  9
$SNAPUNIT
 10
0.125
 20
0
  9
$SNAPSTYLE
 70
     0
  9
$SPLINESEGS
 70
     8
  9
$SPLINETYPE
 70
     6
  0
ENDSEC
  0
SECTION
  2
TABLES
  0TABLE  2VPORT 70     2  0VPORT  2*ACTIVE 70     0 100.0 200.0 111.0 211.0 1213.01087 224.5 130.0 230.0 141.0 241.0 150.0 250.0 160.0 260.0 361.0 170.0 270.0 370.0 409.0 412.891304 4250.0 430.0 440.0 500.0 510.0 71     0 72   100 73     1 74     1 75     0 76     0 77     0 78     0  0ENDTAB
  0
TABLE
  2
LTYPE
 70
     1
  0
LTYPE
  2
CONTINUOUS
 70
    64
  3
Descriptive Text
 72
    65
 73
     0
 40
0
  0
ENDTAB
  0
TABLE
  2
LAYER
 70
     1
  0
LAYER
  2
LAYER1
 70
     0
 62
     7
  6
CONTINUOUS
  0
ENDTAB
  0TABLE  2STYLE 70     1  0STYLE  2STANDARD 70     0 400.0 411.0 500.0 71     0 420.2  3txt  4  0ENDTAB
  0
TABLE
  2
VIEW
 70
     0
  0
ENDTAB
  0
TABLE
  2
UCS
 70
     0
  0
ENDTAB
  0
TABLE
  2
DWGMGR
 70
     0
  0
ENDTAB
  0
ENDSEC
  0
SECTION
  2
BLOCKS
  0
BLOCK
  8
LAYER1
  2
Group1
 70
     0
 10
0
 20
0
 30
0
  0
POLYLINE
  8
LAYER1
  6
CONTINUOUS
 62
     0
 66
     1
 70
     0
 40
0.0039
 41
0.0039
  0
VERTEX
  8
LAYER1
 10
2.0139
 20
9.1839
 30
0
 70
     0
  0
VERTEX
  8
LAYER1
 10
2.6944
 20
9.1839
 30
0
 70
     0
  0
VERTEX
  8
LAYER1
 10
2.6944
 20
9.0867
 30
0
 70
     0
  0
VERTEX
  8
LAYER1
 10
2.0139
 20
9.0867
 30
0
 70
     0
  0
VERTEX
  8
LAYER1
 10
2.0139
 20
9.1839
 30
0
 70
     0
  0
SEQEND
  0
LINE
  8
LAYER1
  6
CONTINUOUS
 62
     7
 10
2.0139
 20
9.1006
 30
0
 11
2.0139
 21
9.1839
 31
0
  0
ENDBLK
  8
LAYER1
  0
BLOCK
  8
LAYER1
  2
Group2
 70
     0
 10
0
 20
0
 30
0
  0
LINE
  8
LAYER1
  6
CONTINUOUS
 62
     7
 10
2.6806
 20
9.1006
 30
0
 11
2.6806
 21
9.1839
 31
0
  0
POLYLINE
  8
LAYER1
  6
CONTINUOUS
 62
     7
 66
     1
 70
     0
 40
0.0039
 41
0.0039
  0
VERTEX
  8
LAYER1
 10
2.4861
 20
9.6284
 30
0
 70
     0
  0
VERTEX
  8
LAYER1
 10
2.5139
 20
9.6006
 30
0
 70
     0
  0
VERTEX
  8
LAYER1
 10
2.0417
 20
9.1284
 30
0
 70
     0
  0
VERTEX
  8
LAYER1
 10
2.0139
 20
9.1561
 30
0
 70
     0
  0
VERTEX
  8
LAYER1
 10
2.4861
 20
9.6284
 30
0
 70
     0
  0
SEQEND
  0
POLYLINE
  8
LAYER1
  6
CONTINUOUS
 62
     7
 66
     1
 70
     0
 40
0.0039
 41
0.0039
  0
VERTEX
  8
LAYER1
 10
2.4971
 20
9.6255
 30
0
 70
     0
  0
VERTEX
  8
LAYER1
 10
2.5431
 20
9.5751
 30
0
 70
     0
  0
VERTEX
  8
LAYER1
 10
2.5831
 20
9.522
 30
0
 70
     0
  0
VERTEX
  8
LAYER1
 10
2.617
 20
9.4661
 30
0
 70
     0
  0
VERTEX
  8
LAYER1
 10
2.6448
 20
9.4076
 30
0
 70
     0
  0
VERTEX
  8
LAYER1
 10
2.6665
 20
9.3466
 30
0
 70
     0
  0
VERTEX
  8
LAYER1
 10
2.682
 20
9.2832
 30
0
 70
     0
  0
VERTEX
  8
LAYER1
 10
2.6913
 20
9.2173
 30
0
 70
     0
  0
VERTEX
  8
LAYER1
 10
2.6944
 20
9.1492
 30
0
 70
     0
  0
SEQEND
  0
ENDBLK
  8
LAYER1
  0
BLOCK
  8
LAYER1
  2
Group3
 70
     0
 10
0
 20
0
 30
0
  0
INSERT
  8
LAYER1
  2
Group1
 10
0
 20
0
 30
0
  0
INSERT
  8
LAYER1
  2
Group2
 10
0
 20
0
 30
0
  0
ENDBLK
  8
LAYER1
  0
BLOCK
  8
LAYER1
  2
Group4
 70
     0
 10
0
 20
0
 30
0
  0
POLYLINE
  8
LAYER1
  6
CONTINUOUS
 62
     0
 66
     1
 70
     0
 40
0.0039
 41
0.0039
  0
VERTEX
  8
LAYER1
 10
3.3056
 20
9.1978
 30
0
 70
     0
  0
VERTEX
  8
LAYER1
 10
3.9444
 20
9.1978
 30
0
 70
     0
  0
VERTEX
  8
LAYER1
 10
3.9444
 20
9.1006
 30
0
 70
     0
  0
VERTEX
  8
LAYER1
 10
3.3056
 20
9.1006
 30
0
 70
     0
  0
VERTEX
  8
LAYER1
 10
3.3056
 20
9.1978
 30
0
 70
     0
  0
SEQEND
  0
LINE
  8
LAYER1
  6
CONTINUOUS
 62
     7
 10
3.3056
 20
9.1978
 30
0
 11
3.3056
 21
9.1145
 31
0
  0
ENDBLK
  8
LAYER1
  0
BLOCK
  8
LAYER1
  2
Group5
 70
     0
 10
0
 20
0
 30
0
  0
INSERT
  8
LAYER1
  2
Group4
 10
0
 20
0
 30
0
  0
LINE
  8
LAYER1
  6
CONTINUOUS
 62
     7
 10
3.9306
 20
9.1978
 30
0
 11
3.9306
 21
9.1145
 31
0
  0
POLYLINE
  8
LAYER1
  6
CONTINUOUS
 62
     7
 66
     1
 70
     0
 40
0.0039
 41
0.0039
  0
VERTEX
  8
LAYER1
 10
3.75
 20
9.6145
 30
0
 70
     0
  0
VERTEX
  8
LAYER1
 10
3.7778
 20
9.6006
 30
0
 70
     0
  0
VERTEX
  8
LAYER1
 10
3.3333
 20
9.1561
 30
0
 70
     0
  0
VERTEX
  8
LAYER1
 10
3.3056
 20
9.17
 30
0
 70
     0
  0
VERTEX
  8
LAYER1
 10
3.75
 20
9.6145
 30
0
 70
     0
  0
SEQEND
  0
POLYLINE
  8
LAYER1
  6
CONTINUOUS
 62
     7
 66
     1
 70
     0
 40
0.0039
 41
0.0039
  0
VERTEX
  8
LAYER1
 10
3.7593
 20
9.6099
 30
0
 70
     0
  0
VERTEX
  8
LAYER1
 10
3.8025
 20
9.5627
 30
0
 70
     0
  0
VERTEX
  8
LAYER1
 10
3.84
 20
9.5128
 30
0
 70
     0
  0
VERTEX
  8
LAYER1
 10
3.8718
 20
9.4604
 30
0
 70
     0
  0
VERTEX
  8
LAYER1
 10
3.8979
 20
9.4055
 30
0
 70
     0
  0
VERTEX
  8
LAYER1
 10
3.9182
 20
9.3483
 30
0
 70
     0
  0
VERTEX
  8
LAYER1
 10
3.9328
 20
9.2888
 30
0
 70
     0
  0
VERTEX
  8
LAYER1
 10
3.9415
 20
9.227
 30
0
 70
     0
  0
VERTEX
  8
LAYER1
 10
3.9444
 20
9.1631
 30
0
 70
     0
  0
SEQEND
  0
ENDBLK
  8
LAYER1
  0
BLOCK
  8
LAYER1
  2
Group6
 70
     0
 10
0
 20
0
 30
0
  0
POLYLINE
  8
LAYER1
  6
CONTINUOUS
 62
     0
 66
     1
 70
     0
 40
0.0039
 41
0.0039
  0
VERTEX
  8
LAYER1
 10
0.6944
 20
9.1839
 30
0
 70
     0
  0
VERTEX
  8
LAYER1
 10
1.4583
 20
9.1839
 30
0
 70
     0
  0
VERTEX
  8
LAYER1
 10
1.4583
 20
9.0867
 30
0
 70
     0
  0
VERTEX
  8
LAYER1
 10
0.6944
 20
9.0867
 30
0
 70
     0
  0
VERTEX
  8
LAYER1
 10
0.6944
 20
9.1839
 30
0
 70
     0
  0
SEQEND
  0
LINE
  8
LAYER1
  6
CONTINUOUS
 62
     7
 10
0.6944
 20
9.1006
 30
0
 11
0.6944
 21
9.1839
 31
0
  0
ENDBLK
  8
LAYER1
  0
BLOCK
  8
LAYER1
  2
Group7
 70
     0
 10
0
 20
0
 30
0
  0
INSERT
  8
LAYER1
  2
Group6
 10
0
 20
0
 30
0
  0
LINE
  8
LAYER1
  6
CONTINUOUS
 62
     7
 10
1.4444
 20
9.1006
 30
0
 11
1.4444
 21
9.1839
 31
0
  0
POLYLINE
  8
LAYER1
  6
CONTINUOUS
 62
     7
 66
     1
 70
     0
 40
0.0039
 41
0.0039
  0
VERTEX
  8
LAYER1
 10
1.2222
 20
9.6839
 30
0
 70
     0
  0
VERTEX
  8
LAYER1
 10
1.25
 20
9.6561
 30
0
 70
     0
  0
VERTEX
  8
LAYER1
 10
0.7222
 20
9.1284
 30
0
 70
     0
  0
VERTEX
  8
LAYER1
 10
0.6944
 20
9.1423
 30
0
 70
     0
  0
VERTEX
  8
LAYER1
 10
1.2222
 20
9.6839
 30
0
 70
     0
  0
SEQEND
  0
POLYLINE
  8
LAYER1
  6
CONTINUOUS
 62
     7
 66
     1
 70
     0
 40
0.0039
 41
0.0039
  0
VERTEX
  8
LAYER1
 10
1.2366
 20
9.6705
 30
0
 70
     0
  0
VERTEX
  8
LAYER1
 10
1.2883
 20
9.6139
 30
0
 70
     0
  0
VERTEX
  8
LAYER1
 10
1.3332
 20
9.5542
 30
0
 70
     0
  0
VERTEX
  8
LAYER1
 10
1.3713
 20
9.4914
 30
0
 70
     0
  0
VERTEX
  8
LAYER1
 10
1.4025
 20
9.4257
 30
0
 70
     0
  0
VERTEX
  8
LAYER1
 10
1.4269
 20
9.3572
 30
0
 70
     0
  0
VERTEX
  8
LAYER1
 10
1.4443
 20
9.2859
 30
0
 70
     0
  0
VERTEX
  8
LAYER1
 10
1.4548
 20
9.2119
 30
0
 70
     0
  0
VERTEX
  8
LAYER1
 10
1.4583
 20
9.1353
 30
0
 70
     0
  0
SEQEND
  0
ENDBLK
  8
LAYER1
  0
BLOCK
  8
LAYER1
  2
Group8
 70
     0
 10
0
 20
0
 30
0
  0
POLYLINE
  8
LAYER1
  6
CONTINUOUS
 62
     0
 66
     1
 70
     0
 40
0.0039
 41
0.0039
  0
VERTEX
  8
LAYER1
 10
3.3056
 20
7.6561
 30
0
 70
     0
  0
VERTEX
  8
LAYER1
 10
3.9444
 20
7.6561
 30
0
 70
     0
  0
VERTEX
  8
LAYER1
 10
3.9444
 20
7.5589
 30
0
 70
     0
  0
VERTEX
  8
LAYER1
 10
3.3056
 20
7.5589
 30
0
 70
     0
  0
VERTEX
  8
LAYER1
 10
3.3056
 20
7.6561
 30
0
 70
     0
  0
SEQEND
  0
LINE
  8
LAYER1
  6
CONTINUOUS
 62
     7
 10
3.3056
 20
7.6561
 30
0
 11
3.3056
 21
7.5728
 31
0
  0
ENDBLK
  8
LAYER1
  0
BLOCK
  8
LAYER1
  2
Group9
 70
     0
 10
0
 20
0
 30
0
  0
LINE
  8
LAYER1
  6
CONTINUOUS
 62
     7
 10
3.9306
 20
7.6561
 30
0
 11
3.9306
 21
7.5728
 31
0
  0
POLYLINE
  8
LAYER1
  6
CONTINUOUS
 62
     7
 66
     1
 70
     0
 40
0.0039
 41
0.0039
  0
VERTEX
  8
LAYER1
 10
3.3056
 20
8.2534
 30
0
 70
     0
  0
VERTEX
  8
LAYER1
 10
3.3472
 20
8.2534
 30
0
 70
     0
  0
VERTEX
  8
LAYER1
 10
3.3472
 20
7.6145
 30
0
 70
     0
  0
VERTEX
  8
LAYER1
 10
3.3056
 20
7.6145
 30
0
 70
     0
  0
VERTEX
  8
LAYER1
 10
3.3056
 20
8.2534
 30
0
 70
     0
  0
SEQEND
  0
POLYLINE
  8
LAYER1
  6
CONTINUOUS
 62
     7
 66
     1
 70
     0
 40
0.0039
 41
0.0039
  0
VERTEX
  8
LAYER1
 10
3.3125
 20
8.2534
 30
0
 70
     0
  0
VERTEX
  8
LAYER1
 10
3.3767
 20
8.2501
 30
0
 70
     0
  0
VERTEX
  8
LAYER1
 10
3.4392
 20
8.2404
 30
0
 70
     0
  0
VERTEX
  8
LAYER1
 10
3.4995
 20
8.2248
 30
0
 70
     0
  0
VERTEX
  8
LAYER1
 10
3.5575
 20
8.2034
 30
0
 70
     0
  0
VERTEX
  8
LAYER1
 10
3.6127
 20
8.1766
 30
0
 70
     0
  0
VERTEX
  8
LAYER1
 10
3.6648
 20
8.1448
 30
0
 70
     0
  0
VERTEX
  8
LAYER1
 10
3.7135
 20
8.1083
 30
0
 70
     0
  0
VERTEX
  8
LAYER1
 10
3.7585
 20
8.0674
 30
0
 70
     0
  0
VERTEX
  8
LAYER1
 10
3.7994
 20
8.0224
 30
0
 70
     0
  0
VERTEX
  8
LAYER1
 10
3.8359
 20
7.9737
 30
0
 70
     0
  0
VERTEX
  8
LAYER1
 10
3.8677
 20
7.9216
 30
0
 70
     0
  0
VERTEX
  8
LAYER1
 10
3.8945
 20
7.8664
 30
0
 70
     0
  0
VERTEX
  8
LAYER1
 10
3.9158
 20
7.8085
 30
0
 70
     0
  0
VERTEX
  8
LAYER1
 10
3.9315
 20
7.7481
 30
0
 70
     0
  0
VERTEX
  8
LAYER1
 10
3.9412
 20
7.6856
 30
0
 70
     0
  0
VERTEX
  8
LAYER1
 10
3.9444
 20
7.6214
 30
0
 70
     0
  0
SEQEND
  0
ENDBLK
  8
LAYER1
  0
BLOCK
  8
LAYER1
  2
Group10
 70
     0
 10
0
 20
0
 30
0
  0
INSERT
  8
LAYER1
  2
Group8
 10
0
 20
0
 30
0
  0
INSERT
  8
LAYER1
  2
Group9
 10
0
 20
0
 30
0
  0
ENDBLK
  8
LAYER1
  0
BLOCK
  8
LAYER1
  2
Group11
 70
     0
 10
0
 20
0
 30
0
  0
POLYLINE
  8
LAYER1
  6
CONTINUOUS
 62
     0
 66
     1
 70
     0
 40
0.0039
 41
0.0039
  0
VERTEX
  8
LAYER1
 10
0.6944
 20
7.6423
 30
0
 70
     0
  0
VERTEX
  8
LAYER1
 10
1.4583
 20
7.6423
 30
0
 70
     0
  0
VERTEX
  8
LAYER1
 10
1.4583
 20
7.545
 30
0
 70
     0
  0
VERTEX
  8
LAYER1
 10
0.6944
 20
7.545
 30
0
 70
     0
  0
VERTEX
  8
LAYER1
 10
0.6944
 20
7.6423
 30
0
 70
     0
  0
SEQEND
  0
LINE
  8
LAYER1
  6
CONTINUOUS
 62
     7
 10
0.6944
 20
7.6423
 30
0
 11
0.6944
 21
7.5589
 31
0
  0
ENDBLK
  8
LAYER1
  0
BLOCK
  8
LAYER1
  2
Group12
 70
     0
 10
0
 20
0
 30
0
  0
LINE
  8
LAYER1
  6
CONTINUOUS
 62
     7
 10
1.4444
 20
7.6423
 30
0
 11
1.4444
 21
7.5589
 31
0
  0
POLYLINE
  8
LAYER1
  6
CONTINUOUS
 62
     7
 66
     1
 70
     0
 40
0.0039
 41
0.0039
  0
VERTEX
  8
LAYER1
 10
0.6944
 20
8.3506
 30
0
 70
     0
  0
VERTEX
  8
LAYER1
 10
0.7361
 20
8.3506
 30
0
 70
     0
  0
VERTEX
  8
LAYER1
 10
0.7361
 20
7.5867
 30
0
 70
     0
  0
VERTEX
  8
LAYER1
 10
0.6944
 20
7.5867
 30
0
 70
     0
  0
VERTEX
  8
LAYER1
 10
0.6944
 20
8.3506
 30
0
 70
     0
  0
SEQEND
  0
POLYLINE
  8
LAYER1
  6
CONTINUOUS
 62
     7
 66
     1
 70
     0
 40
0.0039
 41
0.0039
  0
VERTEX
  8
LAYER1
 10
0.7014
 20
8.3506
 30
0
 70
     0
  0
VERTEX
  8
LAYER1
 10
0.7783
 20
8.3466
 30
0
 70
     0
  0
VERTEX
  8
LAYER1
 10
0.8531
 20
8.3351
 30
0
 70
     0
  0
VERTEX
  8
LAYER1
 10
0.9254
 20
8.3163
 30
0
 70
     0
  0
VERTEX
  8
LAYER1
 10
0.9948
 20
8.2907
 30
0
 70
     0
  0
VERTEX
  8
LAYER1
 10
1.0609
 20
8.2587
 30
0
 70
     0
  0
VERTEX
  8
LAYER1
 10
1.1233
 20
8.2206
 30
0
 70
     0
  0
VERTEX
  8
LAYER1
 10
1.1817
 20
8.1768
 30
0
 70
     0
  0
VERTEX
  8
LAYER1
 10
1.2356
 20
8.1278
 30
0
 70
     0
  0
VERTEX
  8
LAYER1
 10
1.2846
 20
8.074
 30
0
 70
     0
  0
VERTEX
  8
LAYER1
 10
1.3283
 20
8.0156
 30
0
 70
     0
  0
VERTEX
  8
LAYER1
 10
1.3664
 20
7.9532
 30
0
 70
     0
  0
VERTEX
  8
LAYER1
 10
1.3984
 20
7.8871
 30
0
 70
     0
  0
VERTEX
  8
LAYER1
 10
1.4241
 20
7.8177
 30
0
 70
     0
  0
VERTEX
  8
LAYER1
 10
1.4428
 20
7.7454
 30
0
 70
     0
  0
VERTEX
  8
LAYER1
 10
1.4544
 20
7.6706
 30
0
 70
     0
  0
VERTEX
  8
LAYER1
 10
1.4583
 20
7.5936
 30
0
 70
     0
  0
SEQEND
  0
ENDBLK
  8
LAYER1
  0
BLOCK
  8
LAYER1
  2
Group13
 70
     0
 10
0
 20
0
 30
0
  0
INSERT
  8
LAYER1
  2
Group11
 10
0
 20
0
 30
0
  0
INSERT
  8
LAYER1
  2
Group12
 10
0
 20
0
 30
0
  0
ENDBLK
  8
LAYER1
  0
BLOCK
  8
LAYER1
  2
Group14
 70
     0
 10
0
 20
0
 30
0
  0
POLYLINE
  8
LAYER1
  6
CONTINUOUS
 62
     0
 66
     1
 70
     0
 40
0.0039
 41
0.0039
  0
VERTEX
  8
LAYER1
 10
4.7778
 20
7.6839
 30
0
 70
     0
  0
VERTEX
  8
LAYER1
 10
5.375
 20
7.6839
 30
0
 70
     0
  0
VERTEX
  8
LAYER1
 10
5.375
 20
7.5867
 30
0
 70
     0
  0
VERTEX
  8
LAYER1
 10
4.7778
 20
7.5867
 30
0
 70
     0
  0
VERTEX
  8
LAYER1
 10
4.7778
 20
7.6839
 30
0
 70
     0
  0
SEQEND
  0
LINE
  8
LAYER1
  6
CONTINUOUS
 62
     7
 10
4.7778
 20
7.6839
 30
0
 11
4.7778
 21
7.6006
 31
0
  0
ENDBLK
  8
LAYER1
  0
BLOCK
  8
LAYER1
  2
Group15
 70
     0
 10
0
 20
0
 30
0
  0
INSERT
  8
LAYER1
  2
Group14
 10
0
 20
0
 30
0
  0
LINE
  8
LAYER1
  6
CONTINUOUS
 62
     7
 10
5.3611
 20
7.6839
 30
0
 11
5.3611
 21
7.6006
 31
0
  0
POLYLINE
  8
LAYER1
  6
CONTINUOUS
 62
     7
 66
     1
 70
     0
 40
0.0039
 41
0.0039
  0
VERTEX
  8
LAYER1
 10
4.7778
 20
8.2395
 30
0
 70
     0
  0
VERTEX
  8
LAYER1
 10
4.8194
 20
8.2395
 30
0
 70
     0
  0
VERTEX
  8
LAYER1
 10
4.8194
 20
7.6423
 30
0
 70
     0
  0
VERTEX
  8
LAYER1
 10
4.7778
 20
7.6423
 30
0
 70
     0
  0
VERTEX
  8
LAYER1
 10
4.7778
 20
8.2395
 30
0
 70
     0
  0
SEQEND
  0
POLYLINE
  8
LAYER1
  6
CONTINUOUS
 62
     7
 66
     1
 70
     0
 40
0.0039
 41
0.0039
  0
VERTEX
  8
LAYER1
 10
4.7847
 20
8.2395
 30
0
 70
     0
  0
VERTEX
  8
LAYER1
 10
4.8447
 20
8.2364
 30
0
 70
     0
  0
VERTEX
  8
LAYER1
 10
4.903
 20
8.2274
 30
0
 70
     0
  0
VERTEX
  8
LAYER1
 10
4.9594
 20
8.2127
 30
0
 70
     0
  0
VERTEX
  8
LAYER1
 10
5.0135
 20
8.1928
 30
0
 70
     0
  0
VERTEX
  8
LAYER1
 10
5.1138
 20
8.1381
 30
0
 70
     0
  0
VERTEX
  8
LAYER1
 10
5.2013
 20
8.0658
 30
0
 70
     0
  0
VERTEX
  8
LAYER1
 10
5.2736
 20
7.9783
 30
0
 70
     0
  0
VERTEX
  8
LAYER1
 10
5.3283
 20
7.878
 30
0
 70
     0
  0
VERTEX
  8
LAYER1
 10
5.3483
 20
7.8239
 30
0
 70
     0
  0
VERTEX
  8
LAYER1
 10
5.3629
 20
7.7675
 30
0
 70
     0
  0
VERTEX
  8
LAYER1
 10
5.3719
 20
7.7092
 30
0
 70
     0
  0
VERTEX
  8
LAYER1
 10
5.375
 20
7.6492
 30
0
 70
     0
  0
SEQEND
  0
ENDBLK
  8
LAYER1
  0
BLOCK
  8
LAYER1
  2
Group16
 70
     0
 10
0
 20
0
 30
0
  0
POLYLINE
  8
LAYER1
  6
CONTINUOUS
 62
     0
 66
     1
 70
     0
 40
0.0039
 41
0.0039
  0
VERTEX
  8
LAYER1
 10
0.6944
 20
6.0173
 30
0
 70
     0
  0
VERTEX
  8
LAYER1
 10
1.4583
 20
6.0173
 30
0
 70
     0
  0
VERTEX
  8
LAYER1
 10
1.4583
 20
5.92
 30
0
 70
     0
  0
VERTEX
  8
LAYER1
 10
0.6944
 20
5.92
 30
0
 70
     0
  0
VERTEX
  8
LAYER1
 10
0.6944
 20
6.0173
 30
0
 70
     0
  0
SEQEND
  0
LINE
  8
LAYER1
  6
CONTINUOUS
 62
     7
 10
0.6944
 20
6.0173
 30
0
 11
0.6944
 21
5.9339
 31
0
  0
ENDBLK
  8
LAYER1
  0
BLOCK
  8
LAYER1
  2
Group17
 70
     0
 10
0
 20
0
 30
0
  0
LINE
  8
LAYER1
  6
CONTINUOUS
 62
     7
 10
1.4444
 20
6.0173
 30
0
 11
1.4444
 21
5.9339
 31
0
  0
POLYLINE
  8
LAYER1
  6
CONTINUOUS
 62
     7
 66
     1
 70
     0
 40
0.0039
 41
0.0039
  0
VERTEX
  8
LAYER1
 10
0.6944
 20
6.7256
 30
0
 70
     0
  0
VERTEX
  8
LAYER1
 10
0.7361
 20
6.7256
 30
0
 70
     0
  0
VERTEX
  8
LAYER1
 10
0.7361
 20
5.9617
 30
0
 70
     0
  0
VERTEX
  8
LAYER1
 10
0.6944
 20
5.9617
 30
0
 70
     0
  0
VERTEX
  8
LAYER1
 10
0.6944
 20
6.7256
 30
0
 70
     0
  0
SEQEND
  0
POLYLINE
  8
LAYER1
  6
CONTINUOUS
 62
     7
 66
     1
 70
     0
 40
0.0039
 41
0.0039
  0
VERTEX
  8
LAYER1
 10
0.7014
 20
6.7256
 30
0
 70
     0
  0
VERTEX
  8
LAYER1
 10
0.7783
 20
6.7216
 30
0
 70
     0
  0
VERTEX
  8
LAYER1
 10
0.8531
 20
6.7101
 30
0
 70
     0
  0
VERTEX
  8
LAYER1
 10
0.9254
 20
6.6913
 30
0
 70
     0
  0
VERTEX
  8
LAYER1
 10
0.9948
 20
6.6657
 30
0
 70
     0
  0
VERTEX
  8
LAYER1
 10
1.0609
 20
6.6337
 30
0
 70
     0
  0
VERTEX
  8
LAYER1
 10
1.1233
 20
6.5956
 30
0
 70
     0
  0
VERTEX
  8
LAYER1
 10
1.1817
 20
6.5518
 30
0
 70
     0
  0
VERTEX
  8
LAYER1
 10
1.2356
 20
6.5028
 30
0
 70
     0
  0
VERTEX
  8
LAYER1
 10
1.2846
 20
6.449
 30
0
 70
     0
  0
VERTEX
  8
LAYER1
 10
1.3283
 20
6.3906
 30
0
 70
     0
  0
VERTEX
  8
LAYER1
 10
1.3664
 20
6.3282
 30
0
 70
     0
  0
VERTEX
  8
LAYER1
 10
1.3984
 20
6.2621
 30
0
 70
     0
  0
VERTEX
  8
LAYER1
 10
1.4241
 20
6.1927
 30
0
 70
     0
  0
VERTEX
  8
LAYER1
 10
1.4428
 20
6.1204
 30
0
 70
     0
  0
VERTEX
  8
LAYER1
 10
1.4544
 20
6.0456
 30
0
 70
     0
  0
VERTEX
  8
LAYER1
 10
1.4583
 20
5.9686
 30
0
 70
     0
  0
SEQEND
  0
ENDBLK
  8
LAYER1
  0
BLOCK
  8
LAYER1
  2
Group18
 70
     0
 10
0
 20
0
 30
0
  0
POLYLINE
  8
LAYER1
  6
CONTINUOUS
 62
     7
 66
     1
 70
     0
 40
0.0039
 41
0.0039
  0
VERTEX
  8
LAYER1
 10
0.6944
 20
5.9756
 30
0
 70
     0
  0
VERTEX
  8
LAYER1
 10
0.7361
 20
5.9756
 30
0
 70
     0
  0
VERTEX
  8
LAYER1
 10
0.7361
 20
5.2117
 30
0
 70
     0
  0
VERTEX
  8
LAYER1
 10
0.6944
 20
5.2117
 30
0
 70
     0
  0
VERTEX
  8
LAYER1
 10
0.6944
 20
5.9756
 30
0
 70
     0
  0
SEQEND
  0
POLYLINE
  8
LAYER1
  6
CONTINUOUS
 62
     7
 66
     1
 70
     0
 40
0.0039
 41
0.0039
  0
VERTEX
  8
LAYER1
 10
1.4583
 20
5.9686
 30
0
 70
     0
  0
VERTEX
  8
LAYER1
 10
1.4544
 20
5.8917
 30
0
 70
     0
  0
VERTEX
  8
LAYER1
 10
1.4428
 20
5.8169
 30
0
 70
     0
  0
VERTEX
  8
LAYER1
 10
1.4241
 20
5.7446
 30
0
 70
     0
  0
VERTEX
  8
LAYER1
 10
1.3984
 20
5.6752
 30
0
 70
     0
  0
VERTEX
  8
LAYER1
 10
1.3664
 20
5.6091
 30
0
 70
     0
  0
VERTEX
  8
LAYER1
 10
1.3283
 20
5.5467
 30
0
 70
     0
  0
VERTEX
  8
LAYER1
 10
1.2846
 20
5.4883
 30
0
 70
     0
  0
VERTEX
  8
LAYER1
 10
1.2356
 20
5.4345
 30
0
 70
     0
  0
VERTEX
  8
LAYER1
 10
1.1817
 20
5.3855
 30
0
 70
     0
  0
VERTEX
  8
LAYER1
 10
1.1233
 20
5.3417
 30
0
 70
     0
  0
VERTEX
  8
LAYER1
 10
1.0609
 20
5.3036
 30
0
 70
     0
  0
VERTEX
  8
LAYER1
 10
0.9948
 20
5.2716
 30
0
 70
     0
  0
VERTEX
  8
LAYER1
 10
0.9254
 20
5.246
 30
0
 70
     0
  0
VERTEX
  8
LAYER1
 10
0.8531
 20
5.2272
 30
0
 70
     0
  0
VERTEX
  8
LAYER1
 10
0.7783
 20
5.2156
 30
0
 70
     0
  0
VERTEX
  8
LAYER1
 10
0.7014
 20
5.2117
 30
0
 70
     0
  0
SEQEND
  0
ENDBLK
  8
LAYER1
  0
BLOCK
  8
LAYER1
  2
Group19
 70
     0
 10
0
 20
0
 30
0
  0
INSERT
  8
LAYER1
  2
Group17
 10
0
 20
0
 30
0
  0
INSERT
  8
LAYER1
  2
Group18
 10
0
 20
0
 30
0
  0
ENDBLK
  8
LAYER1
  0
BLOCK
  8
LAYER1
  2
Group20
 70
     0
 10
0
 20
0
 30
0
  0
INSERT
  8
LAYER1
  2
Group16
 10
0
 20
0
 30
0
  0
INSERT
  8
LAYER1
  2
Group19
 10
0
 20
0
 30
0
  0
ENDBLK
  8
LAYER1
  0
BLOCK
  8
LAYER1
  2
Group21
 70
     0
 10
0
 20
0
 30
0
  0
POLYLINE
  8
LAYER1
  6
CONTINUOUS
 62
     0
 66
     1
 70
     0
 40
0.0039
 41
0.0039
  0
VERTEX
  8
LAYER1
 10
2.0139
 20
6.0311
 30
0
 70
     0
  0
VERTEX
  8
LAYER1
 10
2.6944
 20
6.0311
 30
0
 70
     0
  0
VERTEX
  8
LAYER1
 10
2.6944
 20
5.9339
 30
0
 70
     0
  0
VERTEX
  8
LAYER1
 10
2.0139
 20
5.9339
 30
0
 70
     0
  0
VERTEX
  8
LAYER1
 10
2.0139
 20
6.0311
 30
0
 70
     0
  0
SEQEND
  0
LINE
  8
LAYER1
  6
CONTINUOUS
 62
     7
 10
2.0139
 20
6.0311
 30
0
 11
2.0139
 21
5.9478
 31
0
  0
ENDBLK
  8
LAYER1
  0
BLOCK
  8
LAYER1
  2
Group22
 70
     0
 10
0
 20
0
 30
0
  0
LINE
  8
LAYER1
  6
CONTINUOUS
 62
     7
 10
2.6806
 20
6.0311
 30
0
 11
2.6806
 21
5.9478
 31
0
  0
POLYLINE
  8
LAYER1
  6
CONTINUOUS
 62
     7
 66
     1
 70
     0
 40
0.0039
 41
0.0039
  0
VERTEX
  8
LAYER1
 10
2.0139
 20
6.6561
 30
0
 70
     0
  0
VERTEX
  8
LAYER1
 10
2.0556
 20
6.6561
 30
0
 70
     0
  0
VERTEX
  8
LAYER1
 10
2.0556
 20
5.9756
 30
0
 70
     0
  0
VERTEX
  8
LAYER1
 10
2.0139
 20
5.9756
 30
0
 70
     0
  0
VERTEX
  8
LAYER1
 10
2.0139
 20
6.6561
 30
0
 70
     0
  0
SEQEND
  0
POLYLINE
  8
LAYER1
  6
CONTINUOUS
 62
     7
 66
     1
 70
     0
 40
0.0039
 41
0.0039
  0
VERTEX
  8
LAYER1
 10
2.0208
 20
6.6561
 30
0
 70
     0
  0
VERTEX
  8
LAYER1
 10
2.0893
 20
6.6526
 30
0
 70
     0
  0
VERTEX
  8
LAYER1
 10
2.1559
 20
6.6424
 30
0
 70
     0
  0
VERTEX
  8
LAYER1
 10
2.2202
 20
6.6256
 30
0
 70
     0
  0
VERTEX
  8
LAYER1
 10
2.282
 20
6.6029
 30
0
 70
     0
  0
VERTEX
  8
LAYER1
 10
2.3408
 20
6.5743
 30
0
 70
     0
  0
VERTEX
  8
LAYER1
 10
2.3963
 20
6.5404
 30
0
 70
     0
  0
VERTEX
  8
LAYER1
 10
2.4483
 20
6.5015
 30
0
 70
     0
  0
VERTEX
  8
LAYER1
 10
2.4962
 20
6.4579
 30
0
 70
     0
  0
VERTEX
  8
LAYER1
 10
2.5398
 20
6.41
 30
0
 70
     0
  0
VERTEX
  8
LAYER1
 10
2.5787
 20
6.358
 30
0
 70
     0
  0
VERTEX
  8
LAYER1
 10
2.6126
 20
6.3025
 30
0
 70
     0
  0
VERTEX
  8
LAYER1
 10
2.6412
 20
6.2437
 30
0
 70
     0
  0
VERTEX
  8
LAYER1
 10
2.6639
 20
6.1819
 30
0
 70
     0
  0
VERTEX
  8
LAYER1
 10
2.6806
 20
6.1176
 30
0
 70
     0
  0
VERTEX
  8
LAYER1
 10
2.6909
 20
6.051
 30
0
 70
     0
  0
VERTEX
  8
LAYER1
 10
2.6944
 20
5.9825
 30
0
 70
     0
  0
SEQEND
  0
POLYLINE
  8
LAYER1
  6
CONTINUOUS
 62
     7
 66
     1
 70
     0
 40
0.0039
 41
0.0039
  0
VERTEX
  8
LAYER1
 10
2.0139
 20
5.9895
 30
0
 70
     0
  0
VERTEX
  8
LAYER1
 10
2.0556
 20
5.9895
 30
0
 70
     0
  0
VERTEX
  8
LAYER1
 10
2.0556
 20
5.3089
 30
0
 70
     0
  0
VERTEX
  8
LAYER1
 10
2.0139
 20
5.3089
 30
0
 70
     0
  0
VERTEX
  8
LAYER1
 10
2.0139
 20
5.9895
 30
0
 70
     0
  0
SEQEND
  0
POLYLINE
  8
LAYER1
  6
CONTINUOUS
 62
     7
 66
     1
 70
     0
 40
0.0039
 41
0.0039
  0
VERTEX
  8
LAYER1
 10
2.6944
 20
5.9825
 30
0
 70
     0
  0
VERTEX
  8
LAYER1
 10
2.6909
 20
5.9141
 30
0
 70
     0
  0
VERTEX
  8
LAYER1
 10
2.6806
 20
5.8475
 30
0
 70
     0
  0
VERTEX
  8
LAYER1
 10
2.6639
 20
5.7832
 30
0
 70
     0
  0
VERTEX
  8
LAYER1
 10
2.6412
 20
5.7214
 30
0
 70
     0
  0
VERTEX
  8
LAYER1
 10
2.6126
 20
5.6626
 30
0
 70
     0
  0
VERTEX
  8
LAYER1
 10
2.5787
 20
5.607
 30
0
 70
     0
  0
VERTEX
  8
LAYER1
 10
2.5398
 20
5.5551
 30
0
 70
     0
  0
VERTEX
  8
LAYER1
 10
2.4962
 20
5.5072
 30
0
 70
     0
  0
VERTEX
  8
LAYER1
 10
2.4483
 20
5.4636
 30
0
 70
     0
  0
VERTEX
  8
LAYER1
 10
2.3963
 20
5.4246
 30
0
 70
     0
  0
VERTEX
  8
LAYER1
 10
2.3408
 20
5.3907
 30
0
 70
     0
  0
VERTEX
  8
LAYER1
 10
2.282
 20
5.3622
 30
0
 70
     0
  0
VERTEX
  8
LAYER1
 10
2.2202
 20
5.3394
 30
0
 70
     0
  0
VERTEX
  8
LAYER1
 10
2.1559
 20
5.3227
 30
0
 70
     0
  0
VERTEX
  8
LAYER1
 10
2.0893
 20
5.3124
 30
0
 70
     0
  0
VERTEX
  8
LAYER1
 10
2.0208
 20
5.3089
 30
0
 70
     0
  0
SEQEND
  0
ENDBLK
  8
LAYER1
  0
BLOCK
  8
LAYER1
  2
Group23
 70
     0
 10
0
 20
0
 30
0
  0
INSERT
  8
LAYER1
  2
Group21
 10
0
 20
0
 30
0
  0
INSERT
  8
LAYER1
  2
Group22
 10
0
 20
0
 30
0
  0
ENDBLK
  8
LAYER1
  0
BLOCK
  8
LAYER1
  2
Group24
 70
     0
 10
0
 20
0
 30
0
  0
POLYLINE
  8
LAYER1
  6
CONTINUOUS
 62
     0
 66
     1
 70
     0
 40
0.0039
 41
0.0039
  0
VERTEX
  8
LAYER1
 10
3.3056
 20
6.0311
 30
0
 70
     0
  0
VERTEX
  8
LAYER1
 10
3.9444
 20
6.0311
 30
0
 70
     0
  0
VERTEX
  8
LAYER1
 10
3.9444
 20
5.9339
 30
0
 70
     0
  0
VERTEX
  8
LAYER1
 10
3.3056
 20
5.9339
 30
0
 70
     0
  0
VERTEX
  8
LAYER1
 10
3.3056
 20
6.0311
 30
0
 70
     0
  0
SEQEND
  0
LINE
  8
LAYER1
  6
CONTINUOUS
 62
     7
 10
3.3056
 20
6.0311
 30
0
 11
3.3056
 21
5.9478
 31
0
  0
ENDBLK
  8
LAYER1
  0
BLOCK
  8
LAYER1
  2
Group25
 70
     0
 10
0
 20
0
 30
0
  0
LINE
  8
LAYER1
  6
CONTINUOUS
 62
     7
 10
3.9306
 20
6.0311
 30
0
 11
3.9306
 21
5.9478
 31
0
  0
POLYLINE
  8
LAYER1
  6
CONTINUOUS
 62
     7
 66
     1
 70
     0
 40
0.0039
 41
0.0039
  0
VERTEX
  8
LAYER1
 10
3.3056
 20
6.6145
 30
0
 70
     0
  0
VERTEX
  8
LAYER1
 10
3.3472
 20
6.6145
 30
0
 70
     0
  0
VERTEX
  8
LAYER1
 10
3.3472
 20
5.9756
 30
0
 70
     0
  0
VERTEX
  8
LAYER1
 10
3.3056
 20
5.9756
 30
0
 70
     0
  0
VERTEX
  8
LAYER1
 10
3.3056
 20
6.6145
 30
0
 70
     0
  0
SEQEND
  0
POLYLINE
  8
LAYER1
  6
CONTINUOUS
 62
     7
 66
     1
 70
     0
 40
0.0039
 41
0.0039
  0
VERTEX
  8
LAYER1
 10
3.3125
 20
6.6145
 30
0
 70
     0
  0
VERTEX
  8
LAYER1
 10
3.3767
 20
6.6112
 30
0
 70
     0
  0
VERTEX
  8
LAYER1
 10
3.4392
 20
6.6015
 30
0
 70
     0
  0
VERTEX
  8
LAYER1
 10
3.4995
 20
6.5859
 30
0
 70
     0
  0
VERTEX
  8
LAYER1
 10
3.5575
 20
6.5645
 30
0
 70
     0
  0
VERTEX
  8
LAYER1
 10
3.6127
 20
6.5377
 30
0
 70
     0
  0
VERTEX
  8
LAYER1
 10
3.6648
 20
6.5059
 30
0
 70
     0
  0
VERTEX
  8
LAYER1
 10
3.7135
 20
6.4694
 30
0
 70
     0
  0
VERTEX
  8
LAYER1
 10
3.7585
 20
6.4285
 30
0
 70
     0
  0
VERTEX
  8
LAYER1
 10
3.7994
 20
6.3835
 30
0
 70
     0
  0
VERTEX
  8
LAYER1
 10
3.8359
 20
6.3348
 30
0
 70
     0
  0
VERTEX
  8
LAYER1
 10
3.8677
 20
6.2827
 30
0
 70
     0
  0
VERTEX
  8
LAYER1
 10
3.8945
 20
6.2275
 30
0
 70
     0
  0
VERTEX
  8
LAYER1
 10
3.9158
 20
6.1696
 30
0
 70
     0
  0
VERTEX
  8
LAYER1
 10
3.9315
 20
6.1092
 30
0
 70
     0
  0
VERTEX
  8
LAYER1
 10
3.9412
 20
6.0467
 30
0
 70
     0
  0
VERTEX
  8
LAYER1
 10
3.9444
 20
5.9825
 30
0
 70
     0
  0
SEQEND
  0
POLYLINE
  8
LAYER1
  6
CONTINUOUS
 62
     7
 66
     1
 70
     0
 40
0.0039
 41
0.0039
  0
VERTEX
  8
LAYER1
 10
3.3056
 20
5.9895
 30
0
 70
     0
  0
VERTEX
  8
LAYER1
 10
3.3472
 20
5.9895
 30
0
 70
     0
  0
VERTEX
  8
LAYER1
 10
3.3472
 20
5.3506
 30
0
 70
     0
  0
VERTEX
  8
LAYER1
 10
3.3056
 20
5.3506
 30
0
 70
     0
  0
VERTEX
  8
LAYER1
 10
3.3056
 20
5.9895
 30
0
 70
     0
  0
SEQEND
  0
POLYLINE
  8
LAYER1
  6
CONTINUOUS
 62
     7
 66
     1
 70
     0
 40
0.0039
 41
0.0039
  0
VERTEX
  8
LAYER1
 10
3.9444
 20
5.9825
 30
0
 70
     0
  0
VERTEX
  8
LAYER1
 10
3.9412
 20
5.9183
 30
0
 70
     0
  0
VERTEX
  8
LAYER1
 10
3.9315
 20
5.8558
 30
0
 70
     0
  0
VERTEX
  8
LAYER1
 10
3.9158
 20
5.7955
 30
0
 70
     0
  0
VERTEX
  8
LAYER1
 10
3.8945
 20
5.7375
 30
0
 70
     0
  0
VERTEX
  8
LAYER1
 10
3.8677
 20
5.6824
 30
0
 70
     0
  0
VERTEX
  8
LAYER1
 10
3.8359
 20
5.6302
 30
0
 70
     0
  0
VERTEX
  8
LAYER1
 10
3.7994
 20
5.5815
 30
0
 70
     0
  0
VERTEX
  8
LAYER1
 10
3.7585
 20
5.5366
 30
0
 70
     0
  0
VERTEX
  8
LAYER1
 10
3.7135
 20
5.4957
 30
0
 70
     0
  0
VERTEX
  8
LAYER1
 10
3.6648
 20
5.4591
 30
0
 70
     0
  0
VERTEX
  8
LAYER1
 10
3.6127
 20
5.4273
 30
0
 70
     0
  0
VERTEX
  8
LAYER1
 10
3.5575
 20
5.4006
 30
0
 70
     0
  0
VERTEX
  8
LAYER1
 10
3.4995
 20
5.3792
 30
0
 70
     0
  0
VERTEX
  8
LAYER1
 10
3.4392
 20
5.3635
 30
0
 70
     0
  0
VERTEX
  8
LAYER1
 10
3.3767
 20
5.3539
 30
0
 70
     0
  0
VERTEX
  8
LAYER1
 10
3.3125
 20
5.3506
 30
0
 70
     0
  0
SEQEND
  0
ENDBLK
  8
LAYER1
  0
BLOCK
  8
LAYER1
  2
Group26
 70
     0
 10
0
 20
0
 30
0
  0
INSERT
  8
LAYER1
  2
Group24
 10
0
 20
0
 30
0
  0
INSERT
  8
LAYER1
  2
Group25
 10
0
 20
0
 30
0
  0
ENDBLK
  8
LAYER1
  0
BLOCK
  8
LAYER1
  2
Group27
 70
     0
 10
0
 20
0
 30
0
  0
POLYLINE
  8
LAYER1
  6
CONTINUOUS
 62
     0
 66
     1
 70
     0
 40
0.0039
 41
0.0039
  0
VERTEX
  8
LAYER1
 10
4.7778
 20
6.0589
 30
0
 70
     0
  0
VERTEX
  8
LAYER1
 10
5.375
 20
6.0589
 30
0
 70
     0
  0
VERTEX
  8
LAYER1
 10
5.375
 20
5.9617
 30
0
 70
     0
  0
VERTEX
  8
LAYER1
 10
4.7778
 20
5.9617
 30
0
 70
     0
  0
VERTEX
  8
LAYER1
 10
4.7778
 20
6.0589
 30
0
 70
     0
  0
SEQEND
  0
LINE
  8
LAYER1
  6
CONTINUOUS
 62
     7
 10
4.7778
 20
6.0589
 30
0
 11
4.7778
 21
5.9756
 31
0
  0
ENDBLK
  8
LAYER1
  0
BLOCK
  8
LAYER1
  2
Group28
 70
     0
 10
0
 20
0
 30
0
  0
LINE
  8
LAYER1
  6
CONTINUOUS
 62
     7
 10
5.3611
 20
6.0589
 30
0
 11
5.3611
 21
5.9756
 31
0
  0
POLYLINE
  8
LAYER1
  6
CONTINUOUS
 62
     7
 66
     1
 70
     0
 40
0.0039
 41
0.0039
  0
VERTEX
  8
LAYER1
 10
4.7778
 20
6.6006
 30
0
 70
     0
  0
VERTEX
  8
LAYER1
 10
4.8194
 20
6.6006
 30
0
 70
     0
  0
VERTEX
  8
LAYER1
 10
4.8194
 20
6.0034
 30
0
 70
     0
  0
VERTEX
  8
LAYER1
 10
4.7778
 20
6.0034
 30
0
 70
     0
  0
VERTEX
  8
LAYER1
 10
4.7778
 20
6.6006
 30
0
 70
     0
  0
SEQEND
  0
POLYLINE
  8
LAYER1
  6
CONTINUOUS
 62
     7
 66
     1
 70
     0
 40
0.0039
 41
0.0039
  0
VERTEX
  8
LAYER1
 10
4.7847
 20
6.6006
 30
0
 70
     0
  0
VERTEX
  8
LAYER1
 10
4.8447
 20
6.5975
 30
0
 70
     0
  0
VERTEX
  8
LAYER1
 10
4.903
 20
6.5885
 30
0
 70
     0
  0
VERTEX
  8
LAYER1
 10
4.9594
 20
6.5739
 30
0
 70
     0
  0
VERTEX
  8
LAYER1
 10
5.0135
 20
6.5539
 30
0
 70
     0
  0
VERTEX
  8
LAYER1
 10
5.1138
 20
6.4992
 30
0
 70
     0
  0
VERTEX
  8
LAYER1
 10
5.2013
 20
6.4269
 30
0
 70
     0
  0
VERTEX
  8
LAYER1
 10
5.2736
 20
6.3394
 30
0
 70
     0
  0
VERTEX
  8
LAYER1
 10
5.3283
 20
6.2391
 30
0
 70
     0
  0
VERTEX
  8
LAYER1
 10
5.3483
 20
6.185
 30
0
 70
     0
  0
VERTEX
  8
LAYER1
 10
5.3629
 20
6.1286
 30
0
 70
     0
  0
VERTEX
  8
LAYER1
 10
5.3719
 20
6.0703
 30
0
 70
     0
  0
VERTEX
  8
LAYER1
 10
5.375
 20
6.0103
 30
0
 70
     0
  0
SEQEND
  0
POLYLINE
  8
LAYER1
  6
CONTINUOUS
 62
     7
 66
     1
 70
     0
 40
0.0039
 41
0.0039
  0
VERTEX
  8
LAYER1
 10
4.7778
 20
6.0173
 30
0
 70
     0
  0
VERTEX
  8
LAYER1
 10
4.8194
 20
6.0173
 30
0
 70
     0
  0
VERTEX
  8
LAYER1
 10
4.8194
 20
5.42
 30
0
 70
     0
  0
VERTEX
  8
LAYER1
 10
4.7778
 20
5.42
 30
0
 70
     0
  0
VERTEX
  8
LAYER1
 10
4.7778
 20
6.0173
 30
0
 70
     0
  0
SEQEND
  0
POLYLINE
  8
LAYER1
  6
CONTINUOUS
 62
     7
 66
     1
 70
     0
 40
0.0039
 41
0.0039
  0
VERTEX
  8
LAYER1
 10
5.375
 20
6.0103
 30
0
 70
     0
  0
VERTEX
  8
LAYER1
 10
5.3719
 20
5.9503
 30
0
 70
     0
  0
VERTEX
  8
LAYER1
 10
5.3629
 20
5.892
 30
0
 70
     0
  0
VERTEX
  8
LAYER1
 10
5.3483
 20
5.8356
 30
0
 70
     0
  0
VERTEX
  8
LAYER1
 10
5.3283
 20
5.7815
 30
0
 70
     0
  0
VERTEX
  8
LAYER1
 10
5.2736
 20
5.6813
 30
0
 70
     0
  0
VERTEX
  8
LAYER1
 10
5.2013
 20
5.5937
 30
0
 70
     0
  0
VERTEX
  8
LAYER1
 10
5.1138
 20
5.5214
 30
0
 70
     0
  0
VERTEX
  8
LAYER1
 10
5.0135
 20
5.4667
 30
0
 70
     0
  0
VERTEX
  8
LAYER1
 10
4.9594
 20
5.4468
 30
0
 70
     0
  0
VERTEX
  8
LAYER1
 10
4.903
 20
5.4321
 30
0
 70
     0
  0
VERTEX
  8
LAYER1
 10
4.8447
 20
5.4231
 30
0
 70
     0
  0
VERTEX
  8
LAYER1
 10
4.7847
 20
5.42
 30
0
 70
     0
  0
SEQEND
  0
ENDBLK
  8
LAYER1
  0
BLOCK
  8
LAYER1
  2
Group29
 70
     0
 10
0
 20
0
 30
0
  0
INSERT
  8
LAYER1
  2
Group27
 10
0
 20
0
 30
0
  0
INSERT
  8
LAYER1
  2
Group28
 10
0
 20
0
 30
0
  0
ENDBLK
  8
LAYER1
  0
BLOCK
  8
LAYER1
  2
Group30
 70
     0
 10
0
 20
0
 30
0
  0
POLYLINE
  8
LAYER1
  6
CONTINUOUS
 62
     0
 66
     1
 70
     0
 40
0.0039
 41
0.0039
  0
VERTEX
  8
LAYER1
 10
0.6944
 20
3.4895
 30
0
 70
     0
  0
VERTEX
  8
LAYER1
 10
1.4583
 20
3.4895
 30
0
 70
     0
  0
VERTEX
  8
LAYER1
 10
1.4583
 20
3.3923
 30
0
 70
     0
  0
VERTEX
  8
LAYER1
 10
0.6944
 20
3.3923
 30
0
 70
     0
  0
VERTEX
  8
LAYER1
 10
0.6944
 20
3.4895
 30
0
 70
     0
  0
SEQEND
  0
POLYLINE
  8
LAYER1
  6
CONTINUOUS
 62
     7
 66
     1
 70
     0
 40
0.0039
 41
0.0039
  0
VERTEX
  8
LAYER1
 10
0.6944
 20
4.2117
 30
0
 70
     0
  0
VERTEX
  8
LAYER1
 10
0.7361
 20
4.2117
 30
0
 70
     0
  0
VERTEX
  8
LAYER1
 10
0.7361
 20
3.4478
 30
0
 70
     0
  0
VERTEX
  8
LAYER1
 10
0.6944
 20
3.4478
 30
0
 70
     0
  0
VERTEX
  8
LAYER1
 10
0.6944
 20
4.2117
 30
0
 70
     0
  0
SEQEND
  0
POLYLINE
  8
LAYER1
  6
CONTINUOUS
 62
     7
 66
     1
 70
     0
 40
0.0039
 41
0.0039
  0
VERTEX
  8
LAYER1
 10
0.7014
 20
4.2117
 30
0
 70
     0
  0
VERTEX
  8
LAYER1
 10
0.7783
 20
4.2078
 30
0
 70
     0
  0
VERTEX
  8
LAYER1
 10
0.8531
 20
4.1962
 30
0
 70
     0
  0
VERTEX
  8
LAYER1
 10
0.9254
 20
4.1774
 30
0
 70
     0
  0
VERTEX
  8
LAYER1
 10
0.9948
 20
4.1518
 30
0
 70
     0
  0
VERTEX
  8
LAYER1
 10
1.0609
 20
4.1198
 30
0
 70
     0
  0
VERTEX
  8
LAYER1
 10
1.1233
 20
4.0817
 30
0
 70
     0
  0
VERTEX
  8
LAYER1
 10
1.1817
 20
4.0379
 30
0
 70
     0
  0
VERTEX
  8
LAYER1
 10
1.2356
 20
3.9889
 30
0
 70
     0
  0
VERTEX
  8
LAYER1
 10
1.2846
 20
3.9351
 30
0
 70
     0
  0
VERTEX
  8
LAYER1
 10
1.3283
 20
3.8767
 30
0
 70
     0
  0
VERTEX
  8
LAYER1
 10
1.3664
 20
3.8143
 30
0
 70
     0
  0
VERTEX
  8
LAYER1
 10
1.3984
 20
3.7482
 30
0
 70
     0
  0
VERTEX
  8
LAYER1
 10
1.4241
 20
3.6788
 30
0
 70
     0
  0
VERTEX
  8
LAYER1
 10
1.4428
 20
3.6065
 30
0
 70
     0
  0
VERTEX
  8
LAYER1
 10
1.4544
 20
3.5317
 30
0
 70
     0
  0
VERTEX
  8
LAYER1
 10
1.4583
 20
3.4548
 30
0
 70
     0
  0
SEQEND
  0
ENDBLK
  8
LAYER1
  0
BLOCK
  8
LAYER1
  2
Group31
 70
     0
 10
0
 20
0
 30
0
  0
POLYLINE
  8
LAYER1
  6
CONTINUOUS
 62
     0
 66
     1
 70
     0
 40
0.0039
 41
0.0039
  0
VERTEX
  8
LAYER1
 10
1.4444
 20
3.4895
 30
0
 70
     0
  0
VERTEX
  8
LAYER1
 10
2.2083
 20
3.4895
 30
0
 70
     0
  0
VERTEX
  8
LAYER1
 10
2.2083
 20
3.3923
 30
0
 70
     0
  0
VERTEX
  8
LAYER1
 10
1.4444
 20
3.3923
 30
0
 70
     0
  0
VERTEX
  8
LAYER1
 10
1.4444
 20
3.4895
 30
0
 70
     0
  0
SEQEND
  0
POLYLINE
  8
LAYER1
  6
CONTINUOUS
 62
     7
 66
     1
 70
     0
 40
0.0039
 41
0.0039
  0
VERTEX
  8
LAYER1
 10
2.1667
 20
4.2117
 30
0
 70
     0
  0
VERTEX
  8
LAYER1
 10
2.2083
 20
4.2117
 30
0
 70
     0
  0
VERTEX
  8
LAYER1
 10
2.2083
 20
3.4478
 30
0
 70
     0
  0
VERTEX
  8
LAYER1
 10
2.1667
 20
3.4478
 30
0
 70
     0
  0
VERTEX
  8
LAYER1
 10
2.1667
 20
4.2117
 30
0
 70
     0
  0
SEQEND
  0
POLYLINE
  8
LAYER1
  6
CONTINUOUS
 62
     7
 66
     1
 70
     0
 40
0.0039
 41
0.0039
  0
VERTEX
  8
LAYER1
 10
1.4444
 20
3.4617
 30
0
 70
     0
  0
VERTEX
  8
LAYER1
 10
1.4444
 20
3.4617
 30
0
 70
     0
  0
VERTEX
  8
LAYER1
 10
1.4444
 20
3.5034
 30
0
 70
     0
  0
VERTEX
  8
LAYER1
 10
1.4583
 20
3.5867
 30
0
 70
     0
  0
VERTEX
  8
LAYER1
 10
1.4722
 20
3.6561
 30
0
 70
     0
  0
VERTEX
  8
LAYER1
 10
1.4861
 20
3.7117
 30
0
 70
     0
  0
VERTEX
  8
LAYER1
 10
1.5139
 20
3.7811
 30
0
 70
     0
  0
VERTEX
  8
LAYER1
 10
1.5556
 20
3.8506
 30
0
 70
     0
  0
VERTEX
  8
LAYER1
 10
1.5972
 20
3.9061
 30
0
 70
     0
  0
VERTEX
  8
LAYER1
 10
1.6389
 20
3.9617
 30
0
 70
     0
  0
VERTEX
  8
LAYER1
 10
1.6667
 20
3.9895
 30
0
 70
     0
  0
VERTEX
  8
LAYER1
 10
1.6944
 20
4.0173
 30
0
 70
     0
  0
VERTEX
  8
LAYER1
 10
1.75
 20
4.0589
 30
0
 70
     0
  0
VERTEX
  8
LAYER1
 10
1.8056
 20
4.1006
 30
0
 70
     0
  0
VERTEX
  8
LAYER1
 10
1.875
 20
4.1423
 30
0
 70
     0
  0
VERTEX
  8
LAYER1
 10
1.9444
 20
4.17
 30
0
 70
     0
  0
VERTEX
  8
LAYER1
 10
2
 20
4.1839
 30
0
 70
     0
  0
VERTEX
  8
LAYER1
 10
2.0694
 20
4.1978
 30
0
 70
     0
  0
VERTEX
  8
LAYER1
 10
2.1528
 20
4.2117
 30
0
 70
     0
  0
VERTEX
  8
LAYER1
 10
2.1944
 20
4.2117
 30
0
 70
     0
  0
SEQEND
  0
ENDBLK
  8
LAYER1
  0
BLOCK
  8
LAYER1
  2
Group32
 70
     0
 10
0
 20
0
 30
0
  0
INSERT
  8
LAYER1
  2
Group30
 10
0
 20
0
 30
0
  0
INSERT
  8
LAYER1
  2
Group31
 10
0
 20
0
 30
0
  0
ENDBLK
  8
LAYER1
  0
BLOCK
  8
LAYER1
  2
Group33
 70
     0
 10
0
 20
0
 30
0
  0
POLYLINE
  8
LAYER1
  6
CONTINUOUS
 62
     0
 66
     1
 70
     0
 40
0.0039
 41
0.0039
  0
VERTEX
  8
LAYER1
 10
2.7222
 20
3.5173
 30
0
 70
     0
  0
VERTEX
  8
LAYER1
 10
3.4028
 20
3.5173
 30
0
 70
     0
  0
VERTEX
  8
LAYER1
 10
3.4028
 20
3.42
 30
0
 70
     0
  0
VERTEX
  8
LAYER1
 10
2.7222
 20
3.42
 30
0
 70
     0
  0
VERTEX
  8
LAYER1
 10
2.7222
 20
3.5173
 30
0
 70
     0
  0
SEQEND
  0
ENDBLK
  8
LAYER1
  0
BLOCK
  8
LAYER1
  2
Group34
 70
     0
 10
0
 20
0
 30
0
  0
LINE
  8
LAYER1
  6
CONTINUOUS
 62
     7
 10
2.7222
 20
3.5173
 30
0
 11
2.7222
 21
3.4339
 31
0
  0
POLYLINE
  8
LAYER1
  6
CONTINUOUS
 62
     0
 66
     1
 70
     0
 40
0.0039
 41
0.0039
  0
VERTEX
  8
LAYER1
 10
3.3889
 20
3.5173
 30
0
 70
     0
  0
VERTEX
  8
LAYER1
 10
4.0694
 20
3.5173
 30
0
 70
     0
  0
VERTEX
  8
LAYER1
 10
4.0694
 20
3.42
 30
0
 70
     0
  0
VERTEX
  8
LAYER1
 10
3.3889
 20
3.42
 30
0
 70
     0
  0
VERTEX
  8
LAYER1
 10
3.3889
 20
3.5173
 30
0
 70
     0
  0
SEQEND
  0
ENDBLK
  8
LAYER1
  0
BLOCK
  8
LAYER1
  2
Group35
 70
     0
 10
0
 20
0
 30
0
  0
INSERT
  8
LAYER1
  2
Group33
 10
0
 20
0
 30
0
  0
INSERT
  8
LAYER1
  2
Group34
 10
0
 20
0
 30
0
  0
ENDBLK
  8
LAYER1
  0
BLOCK
  8
LAYER1
  2
Group36
 70
     0
 10
0
 20
0
 30
0
  0
LINE
  8
LAYER1
  6
CONTINUOUS
 62
     7
 10
4.0556
 20
3.5173
 30
0
 11
4.0556
 21
3.4339
 31
0
  0
POLYLINE
  8
LAYER1
  6
CONTINUOUS
 62
     7
 66
     1
 70
     0
 40
0.0039
 41
0.0039
  0
VERTEX
  8
LAYER1
 10
2.7222
 20
4.1561
 30
0
 70
     0
  0
VERTEX
  8
LAYER1
 10
2.7639
 20
4.1561
 30
0
 70
     0
  0
VERTEX
  8
LAYER1
 10
2.7639
 20
3.4756
 30
0
 70
     0
  0
VERTEX
  8
LAYER1
 10
2.7222
 20
3.4756
 30
0
 70
     0
  0
VERTEX
  8
LAYER1
 10
2.7222
 20
4.1561
 30
0
 70
     0
  0
SEQEND
  0
POLYLINE
  8
LAYER1
  6
CONTINUOUS
 62
     7
 66
     1
 70
     0
 40
0.0039
 41
0.0039
  0
VERTEX
  8
LAYER1
 10
2.7292
 20
4.1561
 30
0
 70
     0
  0
VERTEX
  8
LAYER1
 10
2.7976
 20
4.1526
 30
0
 70
     0
  0
VERTEX
  8
LAYER1
 10
2.8642
 20
4.1424
 30
0
 70
     0
  0
VERTEX
  8
LAYER1
 10
2.9285
 20
4.1256
 30
0
 70
     0
  0
VERTEX
  8
LAYER1
 10
2.9903
 20
4.1029
 30
0
 70
     0
  0
VERTEX
  8
LAYER1
 10
3.0491
 20
4.0743
 30
0
 70
     0
  0
VERTEX
  8
LAYER1
 10
3.1047
 20
4.0404
 30
0
 70
     0
  0
VERTEX
  8
LAYER1
 10
3.1566
 20
4.0015
 30
0
 70
     0
  0
VERTEX
  8
LAYER1
 10
3.2045
 20
3.9579
 30
0
 70
     0
  0
VERTEX
  8
LAYER1
 10
3.2481
 20
3.91
 30
0
 70
     0
  0
VERTEX
  8
LAYER1
 10
3.2871
 20
3.858
 30
0
 70
     0
  0
VERTEX
  8
LAYER1
 10
3.321
 20
3.8025
 30
0
 70
     0
  0
VERTEX
  8
LAYER1
 10
3.3495
 20
3.7437
 30
0
 70
     0
  0
VERTEX
  8
LAYER1
 10
3.3723
 20
3.6819
 30
0
 70
     0
  0
VERTEX
  8
LAYER1
 10
3.389
 20
3.6176
 30
0
 70
     0
  0
VERTEX
  8
LAYER1
 10
3.3993
 20
3.551
 30
0
 70
     0
  0
VERTEX
  8
LAYER1
 10
3.4028
 20
3.4825
 30
0
 70
     0
  0
SEQEND
  0
ENDBLK
  8
LAYER1
  0
BLOCK
  8
LAYER1
  2
Group37
 70
     0
 10
0
 20
0
 30
0
  0
INSERT
  8
LAYER1
  2
Group35
 10
0
 20
0
 30
0
  0
INSERT
  8
LAYER1
  2
Group36
 10
0
 20
0
 30
0
  0
POLYLINE
  8
LAYER1
  6
CONTINUOUS
 62
     7
 66
     1
 70
     0
 40
0.0039
 41
0.0039
  0
VERTEX
  8
LAYER1
 10
4.0139
 20
4.1561
 30
0
 70
     0
  0
VERTEX
  8
LAYER1
 10
4.0556
 20
4.1561
 30
0
 70
     0
  0
VERTEX
  8
LAYER1
 10
4.0556
 20
3.4756
 30
0
 70
     0
  0
VERTEX
  8
LAYER1
 10
4.0139
 20
3.4756
 30
0
 70
     0
  0
VERTEX
  8
LAYER1
 10
4.0139
 20
4.1561
 30
0
 70
     0
  0
SEQEND
  0
POLYLINE
  8
LAYER1
  6
CONTINUOUS
 62
     7
 66
     1
 70
     0
 40
0.0039
 41
0.0039
  0
VERTEX
  8
LAYER1
 10
3.3889
 20
3.4895
 30
0
 70
     0
  0
VERTEX
  8
LAYER1
 10
3.3889
 20
3.4895
 30
0
 70
     0
  0
VERTEX
  8
LAYER1
 10
3.3889
 20
3.5173
 30
0
 70
     0
  0
VERTEX
  8
LAYER1
 10
3.3889
 20
3.5867
 30
0
 70
     0
  0
VERTEX
  8
LAYER1
 10
3.4028
 20
3.6423
 30
0
 70
     0
  0
VERTEX
  8
LAYER1
 10
3.4306
 20
3.7256
 30
0
 70
     0
  0
VERTEX
  8
LAYER1
 10
3.4444
 20
3.7673
 30
0
 70
     0
  0
VERTEX
  8
LAYER1
 10
3.4861
 20
3.8367
 30
0
 70
     0
  0
VERTEX
  8
LAYER1
 10
3.5139
 20
3.8784
 30
0
 70
     0
  0
VERTEX
  8
LAYER1
 10
3.5556
 20
3.9339
 30
0
 70
     0
  0
VERTEX
  8
LAYER1
 10
3.5833
 20
3.9617
 30
0
 70
     0
  0
VERTEX
  8
LAYER1
 10
3.6111
 20
3.9895
 30
0
 70
     0
  0
VERTEX
  8
LAYER1
 10
3.6667
 20
4.0311
 30
0
 70
     0
  0
VERTEX
  8
LAYER1
 10
3.7083
 20
4.0589
 30
0
 70
     0
  0
VERTEX
  8
LAYER1
 10
3.7778
 20
4.1006
 30
0
 70
     0
  0
VERTEX
  8
LAYER1
 10
3.8194
 20
4.1145
 30
0
 70
     0
  0
VERTEX
  8
LAYER1
 10
3.9028
 20
4.1423
 30
0
 70
     0
  0
VERTEX
  8
LAYER1
 10
3.9583
 20
4.1561
 30
0
 70
     0
  0
VERTEX
  8
LAYER1
 10
4.0278
 20
4.1561
 30
0
 70
     0
  0
VERTEX
  8
LAYER1
 10
4.0556
 20
4.1561
 30
0
 70
     0
  0
SEQEND
  0
ENDBLK
  8
LAYER1
  0
BLOCK
  8
LAYER1
  2
Group38
 70
     0
 10
0
 20
0
 30
0
  0
POLYLINE
  8
LAYER1
  6
CONTINUOUS
 62
     0
 66
     1
 70
     0
 40
0.0039
 41
0.0039
  0
VERTEX
  8
LAYER1
 10
5.0972
 20
3.4895
 30
0
 70
     0
  0
VERTEX
  8
LAYER1
 10
5.7361
 20
3.4895
 30
0
 70
     0
  0
VERTEX
  8
LAYER1
 10
5.7361
 20
3.3923
 30
0
 70
     0
  0
VERTEX
  8
LAYER1
 10
5.0972
 20
3.3923
 30
0
 70
     0
  0
VERTEX
  8
LAYER1
 10
5.0972
 20
3.4895
 30
0
 70
     0
  0
SEQEND
  0
LINE
  8
LAYER1
  6
CONTINUOUS
 62
     7
 10
5.7222
 20
3.4895
 30
0
 11
5.7222
 21
3.4061
 31
0
  0
POLYLINE
  8
LAYER1
  6
CONTINUOUS
 62
     0
 66
     1
 70
     0
 40
0.0039
 41
0.0039
  0
VERTEX
  8
LAYER1
 10
4.4722
 20
3.4895
 30
0
 70
     0
  0
VERTEX
  8
LAYER1
 10
5.1111
 20
3.4895
 30
0
 70
     0
  0
VERTEX
  8
LAYER1
 10
5.1111
 20
3.3923
 30
0
 70
     0
  0
VERTEX
  8
LAYER1
 10
4.4722
 20
3.3923
 30
0
 70
     0
  0
VERTEX
  8
LAYER1
 10
4.4722
 20
3.4895
 30
0
 70
     0
  0
SEQEND
  0
ENDBLK
  8
LAYER1
  0
BLOCK
  8
LAYER1
  2
Group39
 70
     0
 10
0
 20
0
 30
0
  0
INSERT
  8
LAYER1
  2
Group38
 10
0
 20
0
 30
0
  0
LINE
  8
LAYER1
  6
CONTINUOUS
 62
     7
 10
4.4722
 20
3.4895
 30
0
 11
4.4722
 21
3.4061
 31
0
  0
POLYLINE
  8
LAYER1
  6
CONTINUOUS
 62
     7
 66
     1
 70
     0
 40
0.0039
 41
0.0039
  0
VERTEX
  8
LAYER1
 10
4.4722
 20
4.0867
 30
0
 70
     0
  0
VERTEX
  8
LAYER1
 10
4.5139
 20
4.0867
 30
0
 70
     0
  0
VERTEX
  8
LAYER1
 10
4.5139
 20
3.4478
 30
0
 70
     0
  0
VERTEX
  8
LAYER1
 10
4.4722
 20
3.4478
 30
0
 70
     0
  0
VERTEX
  8
LAYER1
 10
4.4722
 20
4.0867
 30
0
 70
     0
  0
SEQEND
  0
POLYLINE
  8
LAYER1
  6
CONTINUOUS
 62
     7
 66
     1
 70
     0
 40
0.0039
 41
0.0039
  0
VERTEX
  8
LAYER1
 10
4.4792
 20
4.0867
 30
0
 70
     0
  0
VERTEX
  8
LAYER1
 10
4.5434
 20
4.0834
 30
0
 70
     0
  0
VERTEX
  8
LAYER1
 10
4.6058
 20
4.0738
 30
0
 70
     0
  0
VERTEX
  8
LAYER1
 10
4.6662
 20
4.0581
 30
0
 70
     0
  0
VERTEX
  8
LAYER1
 10
4.7241
 20
4.0367
 30
0
 70
     0
  0
VERTEX
  8
LAYER1
 10
4.7793
 20
4.0099
 30
0
 70
     0
  0
VERTEX
  8
LAYER1
 10
4.8314
 20
3.9781
 30
0
 70
     0
  0
VERTEX
  8
LAYER1
 10
4.8802
 20
3.9416
 30
0
 70
     0
  0
VERTEX
  8
LAYER1
 10
4.9251
 20
3.9007
 30
0
 70
     0
  0
VERTEX
  8
LAYER1
 10
4.966
 20
3.8557
 30
0
 70
     0
  0
VERTEX
  8
LAYER1
 10
5.0026
 20
3.807
 30
0
 70
     0
  0
VERTEX
  8
LAYER1
 10
5.0344
 20
3.7549
 30
0
 70
     0
  0
VERTEX
  8
LAYER1
 10
5.0611
 20
3.6997
 30
0
 70
     0
  0
VERTEX
  8
LAYER1
 10
5.0825
 20
3.6418
 30
0
 70
     0
  0
VERTEX
  8
LAYER1
 10
5.0982
 20
3.5814
 30
0
 70
     0
  0
VERTEX
  8
LAYER1
 10
5.1078
 20
3.519
 30
0
 70
     0
  0
VERTEX
  8
LAYER1
 10
5.1111
 20
3.4548
 30
0
 70
     0
  0
SEQEND
  0
POLYLINE
  8
LAYER1
  6
CONTINUOUS
 62
     7
 66
     1
 70
     0
 40
0.0039
 41
0.0039
  0
VERTEX
  8
LAYER1
 10
5.6806
 20
4.0867
 30
0
 70
     0
  0
VERTEX
  8
LAYER1
 10
5.7222
 20
4.0867
 30
0
 70
     0
  0
VERTEX
  8
LAYER1
 10
5.7222
 20
3.4478
 30
0
 70
     0
  0
VERTEX
  8
LAYER1
 10
5.6806
 20
3.4478
 30
0
 70
     0
  0
VERTEX
  8
LAYER1
 10
5.6806
 20
4.0867
 30
0
 70
     0
  0
SEQEND
  0
POLYLINE
  8
LAYER1
  6
CONTINUOUS
 62
     7
 66
     1
 70
     0
 40
0.0039
 41
0.0039
  0
VERTEX
  8
LAYER1
 10
5.0972
 20
3.4617
 30
0
 70
     0
  0
VERTEX
  8
LAYER1
 10
5.0972
 20
3.4617
 30
0
 70
     0
  0
VERTEX
  8
LAYER1
 10
5.0972
 20
3.4895
 30
0
 70
     0
  0
VERTEX
  8
LAYER1
 10
5.0972
 20
3.545
 30
0
 70
     0
  0
VERTEX
  8
LAYER1
 10
5.1111
 20
3.6145
 30
0
 70
     0
  0
VERTEX
  8
LAYER1
 10
5.125
 20
3.67
 30
0
 70
     0
  0
VERTEX
  8
LAYER1
 10
5.1528
 20
3.7256
 30
0
 70
     0
  0
VERTEX
  8
LAYER1
 10
5.1806
 20
3.7811
 30
0
 70
     0
  0
VERTEX
  8
LAYER1
 10
5.2222
 20
3.8367
 30
0
 70
     0
  0
VERTEX
  8
LAYER1
 10
5.25
 20
3.8784
 30
0
 70
     0
  0
VERTEX
  8
LAYER1
 10
5.2778
 20
3.9061
 30
0
 70
     0
  0
VERTEX
  8
LAYER1
 10
5.3056
 20
3.9339
 30
0
 70
     0
  0
VERTEX
  8
LAYER1
 10
5.3472
 20
3.9617
 30
0
 70
     0
  0
VERTEX
  8
LAYER1
 10
5.4028
 20
4.0034
 30
0
 70
     0
  0
VERTEX
  8
LAYER1
 10
5.4583
 20
4.0311
 30
0
 70
     0
  0
VERTEX
  8
LAYER1
 10
5.5139
 20
4.0589
 30
0
 70
     0
  0
VERTEX
  8
LAYER1
 10
5.5694
 20
4.0728
 30
0
 70
     0
  0
VERTEX
  8
LAYER1
 10
5.6389
 20
4.0867
 30
0
 70
     0
  0
VERTEX
  8
LAYER1
 10
5.6944
 20
4.0867
 30
0
 70
     0
  0
VERTEX
  8
LAYER1
 10
5.7222
 20
4.0867
 30
0
 70
     0
  0
SEQEND
  0
ENDBLK
  8
LAYER1
  0
BLOCK
  8
LAYER1
  2
Group40
 70
     0
 10
0
 20
0
 30
0
  0
POLYLINE
  8
LAYER1
  6
CONTINUOUS
 62
     0
 66
     1
 70
     0
 40
0.0039
 41
0.0039
  0
VERTEX
  8
LAYER1
 10
0.6944
 20
1.6145
 30
0
 70
     0
  0
VERTEX
  8
LAYER1
 10
1.4583
 20
1.6145
 30
0
 70
     0
  0
VERTEX
  8
LAYER1
 10
1.4583
 20
1.5173
 30
0
 70
     0
  0
VERTEX
  8
LAYER1
 10
0.6944
 20
1.5173
 30
0
 70
     0
  0
VERTEX
  8
LAYER1
 10
0.6944
 20
1.6145
 30
0
 70
     0
  0
SEQEND
  0
POLYLINE
  8
LAYER1
  6
CONTINUOUS
 62
     0
 66
     1
 70
     0
 40
0.0039
 41
0.0039
  0
VERTEX
  8
LAYER1
 10
1.4444
 20
1.6145
 30
0
 70
     0
  0
VERTEX
  8
LAYER1
 10
2.2083
 20
1.6145
 30
0
 70
     0
  0
VERTEX
  8
LAYER1
 10
2.2083
 20
1.5173
 30
0
 70
     0
  0
VERTEX
  8
LAYER1
 10
1.4444
 20
1.5173
 30
0
 70
     0
  0
VERTEX
  8
LAYER1
 10
1.4444
 20
1.6145
 30
0
 70
     0
  0
SEQEND
  0
LINE
  8
LAYER1
  6
CONTINUOUS
 62
     7
 10
0.6944
 20
1.6145
 30
0
 11
0.6944
 21
1.5311
 31
0
  0
ENDBLK
  8
LAYER1
  0
BLOCK
  8
LAYER1
  2
Group41
 70
     0
 10
0
 20
0
 30
0
  0
INSERT
  8
LAYER1
  2
Group40
 10
0
 20
0
 30
0
  0
LINE
  8
LAYER1
  6
CONTINUOUS
 62
     7
 10
2.1944
 20
1.6145
 30
0
 11
2.1944
 21
1.5311
 31
0
  0
POLYLINE
  8
LAYER1
  6
CONTINUOUS
 62
     7
 66
     1
 70
     0
 40
0.0039
 41
0.0039
  0
VERTEX
  8
LAYER1
 10
1.2222
 20
2.1145
 30
0
 70
     0
  0
VERTEX
  8
LAYER1
 10
1.25
 20
2.1006
 30
0
 70
     0
  0
VERTEX
  8
LAYER1
 10
0.7083
 20
1.5589
 30
0
 70
     0
  0
VERTEX
  8
LAYER1
 10
0.6944
 20
1.5867
 30
0
 70
     0
  0
VERTEX
  8
LAYER1
 10
1.2222
 20
2.1145
 30
0
 70
     0
  0
SEQEND
  0
POLYLINE
  8
LAYER1
  6
CONTINUOUS
 62
     7
 66
     1
 70
     0
 40
0.0039
 41
0.0039
  0
VERTEX
  8
LAYER1
 10
1.2366
 20
2.115
 30
0
 70
     0
  0
VERTEX
  8
LAYER1
 10
1.2883
 20
2.0584
 30
0
 70
     0
  0
VERTEX
  8
LAYER1
 10
1.3332
 20
1.9986
 30
0
 70
     0
  0
VERTEX
  8
LAYER1
 10
1.3713
 20
1.9359
 30
0
 70
     0
  0
VERTEX
  8
LAYER1
 10
1.4025
 20
1.8702
 30
0
 70
     0
  0
VERTEX
  8
LAYER1
 10
1.4269
 20
1.8016
 30
0
 70
     0
  0
VERTEX
  8
LAYER1
 10
1.4443
 20
1.7303
 30
0
 70
     0
  0
VERTEX
  8
LAYER1
 10
1.4548
 20
1.6563
 30
0
 70
     0
  0
VERTEX
  8
LAYER1
 10
1.4583
 20
1.5798
 30
0
 70
     0
  0
SEQEND
  0
POLYLINE
  8
LAYER1
  6
CONTINUOUS
 62
     7
 66
     1
 70
     0
 40
0.0039
 41
0.0039
  0
VERTEX
  8
LAYER1
 10
1.6667
 20
2.1145
 30
0
 70
     0
  0
VERTEX
  8
LAYER1
 10
2.1944
 20
1.5867
 30
0
 70
     0
  0
VERTEX
  8
LAYER1
 10
2.1667
 20
1.5589
 30
0
 70
     0
  0
VERTEX
  8
LAYER1
 10
1.6389
 20
2.1006
 30
0
 70
     0
  0
VERTEX
  8
LAYER1
 10
1.6667
 20
2.1145
 30
0
 70
     0
  0
SEQEND
  0
POLYLINE
  8
LAYER1
  6
CONTINUOUS
 62
     7
 66
     1
 70
     0
 40
0.0039
 41
0.0039
  0
VERTEX
  8
LAYER1
 10
1.4444
 20
1.5867
 30
0
 70
     0
  0
VERTEX
  8
LAYER1
 10
1.4444
 20
1.5867
 30
0
 70
     0
  0
VERTEX
  8
LAYER1
 10
1.4444
 20
1.6284
 30
0
 70
     0
  0
VERTEX
  8
LAYER1
 10
1.4583
 20
1.7117
 30
0
 70
     0
  0
VERTEX
  8
LAYER1
 10
1.4722
 20
1.7811
 30
0
 70
     0
  0
VERTEX
  8
LAYER1
 10
1.4861
 20
1.8367
 30
0
 70
     0
  0
VERTEX
  8
LAYER1
 10
1.5139
 20
1.9061
 30
0
 70
     0
  0
VERTEX
  8
LAYER1
 10
1.5556
 20
1.9756
 30
0
 70
     0
  0
VERTEX
  8
LAYER1
 10
1.5972
 20
2.0311
 30
0
 70
     0
  0
VERTEX
  8
LAYER1
 10
1.6389
 20
2.0867
 30
0
 70
     0
  0
VERTEX
  8
LAYER1
 10
1.6667
 20
2.1145
 30
0
 70
     0
  0
SEQEND
  0
ENDBLK
  8
LAYER1
  0
BLOCK
  8
LAYER1
  2
Group42
 70
     0
 10
0
 20
0
 30
0
  0
POLYLINE
  8
LAYER1
  6
CONTINUOUS
 62
     0
 66
     1
 70
     0
 40
0.0039
 41
0.0039
  0
VERTEX
  8
LAYER1
 10
2.7222
 20
1.6423
 30
0
 70
     0
  0
VERTEX
  8
LAYER1
 10
3.4028
 20
1.6423
 30
0
 70
     0
  0
VERTEX
  8
LAYER1
 10
3.4028
 20
1.545
 30
0
 70
     0
  0
VERTEX
  8
LAYER1
 10
2.7222
 20
1.545
 30
0
 70
     0
  0
VERTEX
  8
LAYER1
 10
2.7222
 20
1.6423
 30
0
 70
     0
  0
SEQEND
  0
POLYLINE
  8
LAYER1
  6
CONTINUOUS
 62
     0
 66
     1
 70
     0
 40
0.0039
 41
0.0039
  0
VERTEX
  8
LAYER1
 10
3.3889
 20
1.6423
 30
0
 70
     0
  0
VERTEX
  8
LAYER1
 10
4.0694
 20
1.6423
 30
0
 70
     0
  0
VERTEX
  8
LAYER1
 10
4.0694
 20
1.545
 30
0
 70
     0
  0
VERTEX
  8
LAYER1
 10
3.3889
 20
1.545
 30
0
 70
     0
  0
VERTEX
  8
LAYER1
 10
3.3889
 20
1.6423
 30
0
 70
     0
  0
SEQEND
  0
LINE
  8
LAYER1
  6
CONTINUOUS
 62
     7
 10
2.7222
 20
1.6423
 30
0
 11
2.7222
 21
1.5589
 31
0
  0
ENDBLK
  8
LAYER1
  0
BLOCK
  8
LAYER1
  2
Group43
 70
     0
 10
0
 20
0
 30
0
  0
INSERT
  8
LAYER1
  2
Group42
 10
0
 20
0
 30
0
  0
LINE
  8
LAYER1
  6
CONTINUOUS
 62
     7
 10
4.0556
 20
1.6423
 30
0
 11
4.0556
 21
1.5589
 31
0
  0
POLYLINE
  8
LAYER1
  6
CONTINUOUS
 62
     7
 66
     1
 70
     0
 40
0.0039
 41
0.0039
  0
VERTEX
  8
LAYER1
 10
3.1944
 20
2.0867
 30
0
 70
     0
  0
VERTEX
  8
LAYER1
 10
3.2083
 20
2.0589
 30
0
 70
     0
  0
VERTEX
  8
LAYER1
 10
2.7361
 20
1.5867
 30
0
 70
     0
  0
VERTEX
  8
LAYER1
 10
2.7222
 20
1.6145
 30
0
 70
     0
  0
VERTEX
  8
LAYER1
 10
3.1944
 20
2.0867
 30
0
 70
     0
  0
SEQEND
  0
POLYLINE
  8
LAYER1
  6
CONTINUOUS
 62
     7
 66
     1
 70
     0
 40
0.0039
 41
0.0039
  0
VERTEX
  8
LAYER1
 10
3.2055
 20
2.0838
 30
0
 70
     0
  0
VERTEX
  8
LAYER1
 10
3.2515
 20
2.0334
 30
0
 70
     0
  0
VERTEX
  8
LAYER1
 10
3.2914
 20
1.9803
 30
0
 70
     0
  0
VERTEX
  8
LAYER1
 10
3.3253
 20
1.9244
 30
0
 70
     0
  0
VERTEX
  8
LAYER1
 10
3.3531
 20
1.866
 30
0
 70
     0
  0
VERTEX
  8
LAYER1
 10
3.3748
 20
1.805
 30
0
 70
     0
  0
VERTEX
  8
LAYER1
 10
3.3903
 20
1.7415
 30
0
 70
     0
  0
VERTEX
  8
LAYER1
 10
3.3997
 20
1.6757
 30
0
 70
     0
  0
VERTEX
  8
LAYER1
 10
3.4028
 20
1.6075
 30
0
 70
     0
  0
SEQEND
  0
POLYLINE
  8
LAYER1
  6
CONTINUOUS
 62
     7
 66
     1
 70
     0
 40
0.0039
 41
0.0039
  0
VERTEX
  8
LAYER1
 10
3.5833
 20
2.0867
 30
0
 70
     0
  0
VERTEX
  8
LAYER1
 10
4.0556
 20
1.6145
 30
0
 70
     0
  0
VERTEX
  8
LAYER1
 10
4.0278
 20
1.5867
 30
0
 70
     0
  0
VERTEX
  8
LAYER1
 10
3.5556
 20
2.0589
 30
0
 70
     0
  0
VERTEX
  8
LAYER1
 10
3.5833
 20
2.0867
 30
0
 70
     0
  0
SEQEND
  0
POLYLINE
  8
LAYER1
  6
CONTINUOUS
 62
     7
 66
     1
 70
     0
 40
0.0039
 41
0.0039
  0
VERTEX
  8
LAYER1
 10
3.3889
 20
1.6145
 30
0
 70
     0
  0
VERTEX
  8
LAYER1
 10
3.3889
 20
1.6145
 30
0
 70
     0
  0
VERTEX
  8
LAYER1
 10
3.3889
 20
1.6423
 30
0
 70
     0
  0
VERTEX
  8
LAYER1
 10
3.3889
 20
1.7117
 30
0
 70
     0
  0
VERTEX
  8
LAYER1
 10
3.4028
 20
1.7673
 30
0
 70
     0
  0
VERTEX
  8
LAYER1
 10
3.4306
 20
1.8506
 30
0
 70
     0
  0
VERTEX
  8
LAYER1
 10
3.4444
 20
1.8923
 30
0
 70
     0
  0
VERTEX
  8
LAYER1
 10
3.4861
 20
1.9617
 30
0
 70
     0
  0
VERTEX
  8
LAYER1
 10
3.5139
 20
2.0034
 30
0
 70
     0
  0
VERTEX
  8
LAYER1
 10
3.5556
 20
2.0589
 30
0
 70
     0
  0
VERTEX
  8
LAYER1
 10
3.5833
 20
2.0867
 30
0
 70
     0
  0
SEQEND
  0
ENDBLK
  8
LAYER1
  0
BLOCK
  8
LAYER1
  2
Group44
 70
     0
 10
0
 20
0
 30
0
  0
POLYLINE
  8
LAYER1
  6
CONTINUOUS
 62
     0
 66
     1
 70
     0
 40
0.0039
 41
0.0039
  0
VERTEX
  8
LAYER1
 10
4.4722
 20
1.6423
 30
0
 70
     0
  0
VERTEX
  8
LAYER1
 10
5.1111
 20
1.6423
 30
0
 70
     0
  0
VERTEX
  8
LAYER1
 10
5.1111
 20
1.545
 30
0
 70
     0
  0
VERTEX
  8
LAYER1
 10
4.4722
 20
1.545
 30
0
 70
     0
  0
VERTEX
  8
LAYER1
 10
4.4722
 20
1.6423
 30
0
 70
     0
  0
SEQEND
  0
POLYLINE
  8
LAYER1
  6
CONTINUOUS
 62
     0
 66
     1
 70
     0
 40
0.0039
 41
0.0039
  0
VERTEX
  8
LAYER1
 10
5.0972
 20
1.6423
 30
0
 70
     0
  0
VERTEX
  8
LAYER1
 10
5.7361
 20
1.6423
 30
0
 70
     0
  0
VERTEX
  8
LAYER1
 10
5.7361
 20
1.545
 30
0
 70
     0
  0
VERTEX
  8
LAYER1
 10
5.0972
 20
1.545
 30
0
 70
     0
  0
VERTEX
  8
LAYER1
 10
5.0972
 20
1.6423
 30
0
 70
     0
  0
SEQEND
  0
LINE
  8
LAYER1
  6
CONTINUOUS
 62
     7
 10
4.4722
 20
1.6423
 30
0
 11
4.4722
 21
1.5589
 31
0
  0
ENDBLK
  8
LAYER1
  0
BLOCK
  8
LAYER1
  2
Group45
 70
     0
 10
0
 20
0
 30
0
  0
INSERT
  8
LAYER1
  2
Group44
 10
0
 20
0
 30
0
  0
LINE
  8
LAYER1
  6
CONTINUOUS
 62
     7
 10
5.7222
 20
1.6423
 30
0
 11
5.7222
 21
1.5589
 31
0
  0
POLYLINE
  8
LAYER1
  6
CONTINUOUS
 62
     7
 66
     1
 70
     0
 40
0.0039
 41
0.0039
  0
VERTEX
  8
LAYER1
 10
4.9167
 20
2.0589
 30
0
 70
     0
  0
VERTEX
  8
LAYER1
 10
4.9306
 20
2.0311
 30
0
 70
     0
  0
VERTEX
  8
LAYER1
 10
4.4861
 20
1.5867
 30
0
 70
     0
  0
VERTEX
  8
LAYER1
 10
4.4722
 20
1.6145
 30
0
 70
     0
  0
VERTEX
  8
LAYER1
 10
4.9167
 20
2.0589
 30
0
 70
     0
  0
SEQEND
  0
POLYLINE
  8
LAYER1
  6
CONTINUOUS
 62
     7
 66
     1
 70
     0
 40
0.0039
 41
0.0039
  0
VERTEX
  8
LAYER1
 10
4.926
 20
2.0544
 30
0
 70
     0
  0
VERTEX
  8
LAYER1
 10
4.9692
 20
2.0071
 30
0
 70
     0
  0
VERTEX
  8
LAYER1
 10
5.0066
 20
1.9572
 30
0
 70
     0
  0
VERTEX
  8
LAYER1
 10
5.0384
 20
1.9048
 30
0
 70
     0
  0
VERTEX
  8
LAYER1
 10
5.0645
 20
1.85
 30
0
 70
     0
  0
VERTEX
  8
LAYER1
 10
5.0848
 20
1.7928
 30
0
 70
     0
  0
VERTEX
  8
LAYER1
 10
5.0994
 20
1.7332
 30
0
 70
     0
  0
VERTEX
  8
LAYER1
 10
5.1082
 20
1.6715
 30
0
 70
     0
  0
VERTEX
  8
LAYER1
 10
5.1111
 20
1.6075
 30
0
 70
     0
  0
SEQEND
  0
POLYLINE
  8
LAYER1
  6
CONTINUOUS
 62
     7
 66
     1
 70
     0
 40
0.0039
 41
0.0039
  0
VERTEX
  8
LAYER1
 10
5.2778
 20
2.0589
 30
0
 70
     0
  0
VERTEX
  8
LAYER1
 10
5.7222
 20
1.6145
 30
0
 70
     0
  0
VERTEX
  8
LAYER1
 10
5.6944
 20
1.5867
 30
0
 70
     0
  0
VERTEX
  8
LAYER1
 10
5.25
 20
2.0311
 30
0
 70
     0
  0
VERTEX
  8
LAYER1
 10
5.2778
 20
2.0589
 30
0
 70
     0
  0
SEQEND
  0
POLYLINE
  8
LAYER1
  6
CONTINUOUS
 62
     7
 66
     1
 70
     0
 40
0.0039
 41
0.0039
  0
VERTEX
  8
LAYER1
 10
5.0972
 20
1.6145
 30
0
 70
     0
  0
VERTEX
  8
LAYER1
 10
5.0972
 20
1.6145
 30
0
 70
     0
  0
VERTEX
  8
LAYER1
 10
5.0972
 20
1.6423
 30
0
 70
     0
  0
VERTEX
  8
LAYER1
 10
5.0972
 20
1.6978
 30
0
 70
     0
  0
VERTEX
  8
LAYER1
 10
5.1111
 20
1.7534
 30
0
 70
     0
  0
VERTEX
  8
LAYER1
 10
5.125
 20
1.8228
 30
0
 70
     0
  0
VERTEX
  8
LAYER1
 10
5.1528
 20
1.8784
 30
0
 70
     0
  0
VERTEX
  8
LAYER1
 10
5.1806
 20
1.92
 30
0
 70
     0
  0
VERTEX
  8
LAYER1
 10
5.2222
 20
1.9895
 30
0
 70
     0
  0
VERTEX
  8
LAYER1
 10
5.25
 20
2.0311
 30
0
 70
     0
  0
VERTEX
  8
LAYER1
 10
5.2778
 20
2.0589
 30
0
 70
     0
  0
SEQEND
  0
ENDBLK
  8
LAYER1
  0
BLOCK
  8
LAYER1
  2
Group46
 70
     0
 10
0
 20
0
 30
0
  0
POLYLINE
  8
LAYER1
  6
CONTINUOUS
 62
     0
 66
     1
 70
     0
 40
0.0039
 41
0.0039
  0
VERTEX
  8
LAYER1
 10
9.1944
 20
9.0589
 30
0
 70
     0
  0
VERTEX
  8
LAYER1
 10
11.25
 20
9.0589
 30
0
 70
     0
  0
VERTEX
  8
LAYER1
 10
11.25
 20
8.9617
 30
0
 70
     0
  0
VERTEX
  8
LAYER1
 10
9.1944
 20
8.9617
 30
0
 70
     0
  0
VERTEX
  8
LAYER1
 10
9.1944
 20
9.0589
 30
0
 70
     0
  0
SEQEND
  0
LINE
  8
LAYER1
  6
CONTINUOUS
 62
     7
 10
9.1944
 20
8.9756
 30
0
 11
9.1944
 21
9.0589
 31
0
  0
ENDBLK
  8
LAYER1
  0
BLOCK
  8
LAYER1
  2
Group47
 70
     0
 10
0
 20
0
 30
0
  0
LINE
  8
LAYER1
  6
CONTINUOUS
 62
     7
 10
11.2361
 20
8.9756
 30
0
 11
11.2361
 21
9.0589
 31
0
  0
POLYLINE
  8
LAYER1
  6
CONTINUOUS
 62
     7
 66
     1
 70
     0
 40
0.0039
 41
0.0039
  0
VERTEX
  8
LAYER1
 10
9.1944
 20
9.045
 30
0
 70
     0
  0
VERTEX
  8
LAYER1
 10
9.2778
 20
9.045
 30
0
 70
     0
  0
VERTEX
  8
LAYER1
 10
9.2778
 20
9.0034
 30
0
 70
     0
  0
VERTEX
  8
LAYER1
 10
9.1944
 20
9.0034
 30
0
 70
     0
  0
VERTEX
  8
LAYER1
 10
9.1944
 20
9.045
 30
0
 70
     0
  0
SEQEND
  0
POLYLINE
  8
LAYER1
  6
CONTINUOUS
 62
     7
 66
     1
 70
     0
 40
0.0039
 41
0.0039
  0
VERTEX
  8
LAYER1
 10
10.1806
 20
9.045
 30
0
 70
     0
  0
VERTEX
  8
LAYER1
 10
10.25
 20
9.045
 30
0
 70
     0
  0
VERTEX
  8
LAYER1
 10
10.25
 20
9.0034
 30
0
 70
     0
  0
VERTEX
  8
LAYER1
 10
10.1806
 20
9.0034
 30
0
 70
     0
  0
VERTEX
  8
LAYER1
 10
10.1806
 20
9.045
 30
0
 70
     0
  0
SEQEND
  0
POLYLINE
  8
LAYER1
  6
CONTINUOUS
 62
     7
 66
     1
 70
     0
 40
0.0039
 41
0.0039
  0
VERTEX
  8
LAYER1
 10
10.1944
 20
9.0173
 30
0
 70
     0
  0
VERTEX
  8
LAYER1
 10
10.2639
 20
9.0173
 30
0
 70
     0
  0
VERTEX
  8
LAYER1
 10
10.2639
 20
8.9756
 30
0
 70
     0
  0
VERTEX
  8
LAYER1
 10
10.1944
 20
8.9756
 30
0
 70
     0
  0
VERTEX
  8
LAYER1
 10
10.1944
 20
9.0173
 30
0
 70
     0
  0
SEQEND
  0
POLYLINE
  8
LAYER1
  6
CONTINUOUS
 62
     7
 66
     1
 70
     0
 40
0.0039
 41
0.0039
  0
VERTEX
  8
LAYER1
 10
11.1667
 20
9.0173
 30
0
 70
     0
  0
VERTEX
  8
LAYER1
 10
11.25
 20
9.0173
 30
0
 70
     0
  0
VERTEX
  8
LAYER1
 10
11.25
 20
8.9756
 30
0
 70
     0
  0
VERTEX
  8
LAYER1
 10
11.1667
 20
8.9756
 30
0
 70
     0
  0
VERTEX
  8
LAYER1
 10
11.1667
 20
9.0173
 30
0
 70
     0
  0
SEQEND
  0
LINE
  8
LAYER1
  6
CONTINUOUS
 62
     7
 10
9.25
 20
9.0311
 30
0
 11
10.1806
 21
9.0311
 31
0
  0
ENDBLK
  8
LAYER1
  0
BLOCK
  8
LAYER1
  2
Group48
 70
     0
 10
0
 20
0
 30
0
  0
INSERT
  8
LAYER1
  2
Group46
 10
0
 20
0
 30
0
  0
INSERT
  8
LAYER1
  2
Group47
 10
0
 20
0
 30
0
  0
ENDBLK
  8
LAYER1
  0
BLOCK
  8
LAYER1
  2
Group49
 70
     0
 10
0
 20
0
 30
0
  0
LINE
  8
LAYER1
  6
CONTINUOUS
 62
     7
 10
10.2361
 20
9.0034
 30
0
 11
11.1667
 21
9.0034
 31
0
  0
POLYLINE
  8
LAYER1
  6
CONTINUOUS
 62
     0
 66
     1
 70
     0
 40
0.0039
 41
0.0039
  0
VERTEX
  8
LAYER1
 10
11.4306
 20
9.8645
 30
0
 70
     0
  0
VERTEX
  8
LAYER1
 10
12.9861
 20
9.8645
 30
0
 70
     0
  0
VERTEX
  8
LAYER1
 10
12.9861
 20
9.7673
 30
0
 70
     0
  0
VERTEX
  8
LAYER1
 10
11.4306
 20
9.7673
 30
0
 70
     0
  0
VERTEX
  8
LAYER1
 10
11.4306
 20
9.8645
 30
0
 70
     0
  0
SEQEND
  0
LINE
  8
LAYER1
  6
CONTINUOUS
 62
     7
 10
11.4306
 20
9.7811
 30
0
 11
11.4306
 21
9.8645
 31
0
  0
ENDBLK
  8
LAYER1
  0
BLOCK
  8
LAYER1
  2
Group50
 70
     0
 10
0
 20
0
 30
0
  0
LINE
  8
LAYER1
  6
CONTINUOUS
 62
     7
 10
12.9722
 20
9.7811
 30
0
 11
12.9722
 21
9.8645
 31
0
  0
POLYLINE
  8
LAYER1
  6
CONTINUOUS
 62
     7
 66
     1
 70
     0
 40
0.0039
 41
0.0039
  0
VERTEX
  8
LAYER1
 10
11.4306
 20
9.8645
 30
0
 70
     0
  0
VERTEX
  8
LAYER1
 10
11.5
 20
9.8645
 30
0
 70
     0
  0
VERTEX
  8
LAYER1
 10
11.5
 20
9.8228
 30
0
 70
     0
  0
VERTEX
  8
LAYER1
 10
11.4306
 20
9.8228
 30
0
 70
     0
  0
VERTEX
  8
LAYER1
 10
11.4306
 20
9.8645
 30
0
 70
     0
  0
SEQEND
  0
POLYLINE
  8
LAYER1
  6
CONTINUOUS
 62
     7
 66
     1
 70
     0
 40
0.0039
 41
0.0039
  0
VERTEX
  8
LAYER1
 10
12.1667
 20
9.8645
 30
0
 70
     0
  0
VERTEX
  8
LAYER1
 10
12.2361
 20
9.8645
 30
0
 70
     0
  0
VERTEX
  8
LAYER1
 10
12.2361
 20
9.8228
 30
0
 70
     0
  0
VERTEX
  8
LAYER1
 10
12.1667
 20
9.8228
 30
0
 70
     0
  0
VERTEX
  8
LAYER1
 10
12.1667
 20
9.8645
 30
0
 70
     0
  0
SEQEND
  0
ENDBLK
  8
LAYER1
  0
BLOCK
  8
LAYER1
  2
Group51
 70
     0
 10
0
 20
0
 30
0
  0
LINE
  8
LAYER1
  6
CONTINUOUS
 62
     7
 10
11.4861
 20
9.8506
 30
0
 11
12.1667
 21
9.8506
 31
0
  0
POLYLINE
  8
LAYER1
  6
CONTINUOUS
 62
     7
 66
     1
 70
     0
 40
0.0039
 41
0.0039
  0
VERTEX
  8
LAYER1
 10
12.1806
 20
9.8228
 30
0
 70
     0
  0
VERTEX
  8
LAYER1
 10
12.25
 20
9.8228
 30
0
 70
     0
  0
VERTEX
  8
LAYER1
 10
12.25
 20
9.7811
 30
0
 70
     0
  0
VERTEX
  8
LAYER1
 10
12.1806
 20
9.7811
 30
0
 70
     0
  0
VERTEX
  8
LAYER1
 10
12.1806
 20
9.8228
 30
0
 70
     0
  0
SEQEND
  0
POLYLINE
  8
LAYER1
  6
CONTINUOUS
 62
     7
 66
     1
 70
     0
 40
0.0039
 41
0.0039
  0
VERTEX
  8
LAYER1
 10
12.9167
 20
9.8228
 30
0
 70
     0
  0
VERTEX
  8
LAYER1
 10
12.9861
 20
9.8228
 30
0
 70
     0
  0
VERTEX
  8
LAYER1
 10
12.9861
 20
9.7811
 30
0
 70
     0
  0
VERTEX
  8
LAYER1
 10
12.9167
 20
9.7811
 30
0
 70
     0
  0
VERTEX
  8
LAYER1
 10
12.9167
 20
9.8228
 30
0
 70
     0
  0
SEQEND
  0
ENDBLK
  8
LAYER1
  0
BLOCK
  8
LAYER1
  2
Group52
 70
     0
 10
0
 20
0
 30
0
  0
INSERT
  8
LAYER1
  2
Group50
 10
0
 20
0
 30
0
  0
INSERT
  8
LAYER1
  2
Group51
 10
0
 20
0
 30
0
  0
ENDBLK
  8
LAYER1
  0
BLOCK
  8
LAYER1
  2
Group53
 70
     0
 10
0
 20
0
 30
0
  0
INSERT
  8
LAYER1
  2
Group49
 10
0
 20
0
 30
0
  0
INSERT
  8
LAYER1
  2
Group52
 10
0
 20
0
 30
0
  0
ENDBLK
  8
LAYER1
  0
BLOCK
  8
LAYER1
  2
Group54
 70
     0
 10
0
 20
0
 30
0
  0
LINE
  8
LAYER1
  6
CONTINUOUS
 62
     7
 10
12.2361
 20
9.8089
 30
0
 11
12.9167
 21
9.8089
 31
0
  0
POLYLINE
  8
LAYER1
  6
CONTINUOUS
 62
     0
 66
     1
 70
     0
 40
0.0039
 41
0.0039
  0
VERTEX
  8
LAYER1
 10
9.9444
 20
9.8645
 30
0
 70
     0
  0
VERTEX
  8
LAYER1
 10
11.25
 20
9.8645
 30
0
 70
     0
  0
VERTEX
  8
LAYER1
 10
11.25
 20
9.7673
 30
0
 70
     0
  0
VERTEX
  8
LAYER1
 10
9.9444
 20
9.7673
 30
0
 70
     0
  0
VERTEX
  8
LAYER1
 10
9.9444
 20
9.8645
 30
0
 70
     0
  0
SEQEND
  0
LINE
  8
LAYER1
  6
CONTINUOUS
 62
     7
 10
9.9444
 20
9.7811
 30
0
 11
9.9444
 21
9.8645
 31
0
  0
ENDBLK
  8
LAYER1
  0
BLOCK
  8
LAYER1
  2
Group55
 70
     0
 10
0
 20
0
 30
0
  0
LINE
  8
LAYER1
  6
CONTINUOUS
 62
     7
 10
11.2361
 20
9.7811
 30
0
 11
11.2361
 21
9.8645
 31
0
  0
POLYLINE
  8
LAYER1
  6
CONTINUOUS
 62
     7
 66
     1
 70
     0
 40
0.0039
 41
0.0039
  0
VERTEX
  8
LAYER1
 10
9.9444
 20
9.8645
 30
0
 70
     0
  0
VERTEX
  8
LAYER1
 10
10.0139
 20
9.8645
 30
0
 70
     0
  0
VERTEX
  8
LAYER1
 10
10.0139
 20
9.8228
 30
0
 70
     0
  0
VERTEX
  8
LAYER1
 10
9.9444
 20
9.8228
 30
0
 70
     0
  0
VERTEX
  8
LAYER1
 10
9.9444
 20
9.8645
 30
0
 70
     0
  0
SEQEND
  0
POLYLINE
  8
LAYER1
  6
CONTINUOUS
 62
     7
 66
     1
 70
     0
 40
0.0039
 41
0.0039
  0
VERTEX
  8
LAYER1
 10
10.5556
 20
9.8645
 30
0
 70
     0
  0
VERTEX
  8
LAYER1
 10
10.625
 20
9.8645
 30
0
 70
     0
  0
VERTEX
  8
LAYER1
 10
10.625
 20
9.8228
 30
0
 70
     0
  0
VERTEX
  8
LAYER1
 10
10.5556
 20
9.8228
 30
0
 70
     0
  0
VERTEX
  8
LAYER1
 10
10.5556
 20
9.8645
 30
0
 70
     0
  0
SEQEND
  0
ENDBLK
  8
LAYER1
  0
BLOCK
  8
LAYER1
  2
Group56
 70
     0
 10
0
 20
0
 30
0
  0
LINE
  8
LAYER1
  6
CONTINUOUS
 62
     7
 10
9.9861
 20
9.8506
 30
0
 11
10.5556
 21
9.8506
 31
0
  0
POLYLINE
  8
LAYER1
  6
CONTINUOUS
 62
     7
 66
     1
 70
     0
 40
0.0039
 41
0.0039
  0
VERTEX
  8
LAYER1
 10
10.5694
 20
9.8228
 30
0
 70
     0
  0
VERTEX
  8
LAYER1
 10
10.6389
 20
9.8228
 30
0
 70
     0
  0
VERTEX
  8
LAYER1
 10
10.6389
 20
9.7811
 30
0
 70
     0
  0
VERTEX
  8
LAYER1
 10
10.5694
 20
9.7811
 30
0
 70
     0
  0
VERTEX
  8
LAYER1
 10
10.5694
 20
9.8228
 30
0
 70
     0
  0
SEQEND
  0
POLYLINE
  8
LAYER1
  6
CONTINUOUS
 62
     7
 66
     1
 70
     0
 40
0.0039
 41
0.0039
  0
VERTEX
  8
LAYER1
 10
11.1806
 20
9.8228
 30
0
 70
     0
  0
VERTEX
  8
LAYER1
 10
11.25
 20
9.8228
 30
0
 70
     0
  0
VERTEX
  8
LAYER1
 10
11.25
 20
9.7811
 30
0
 70
     0
  0
VERTEX
  8
LAYER1
 10
11.1806
 20
9.7811
 30
0
 70
     0
  0
VERTEX
  8
LAYER1
 10
11.1806
 20
9.8228
 30
0
 70
     0
  0
SEQEND
  0
ENDBLK
  8
LAYER1
  0
BLOCK
  8
LAYER1
  2
Group57
 70
     0
 10
0
 20
0
 30
0
  0
INSERT
  8
LAYER1
  2
Group55
 10
0
 20
0
 30
0
  0
INSERT
  8
LAYER1
  2
Group56
 10
0
 20
0
 30
0
  0
ENDBLK
  8
LAYER1
  0
BLOCK
  8
LAYER1
  2
Group58
 70
     0
 10
0
 20
0
 30
0
  0
INSERT
  8
LAYER1
  2
Group54
 10
0
 20
0
 30
0
  0
INSERT
  8
LAYER1
  2
Group57
 10
0
 20
0
 30
0
  0
ENDBLK
  8
LAYER1
  0
BLOCK
  8
LAYER1
  2
Group59
 70
     0
 10
0
 20
0
 30
0
  0
LINE
  8
LAYER1
  6
CONTINUOUS
 62
     7
 10
10.6111
 20
9.8089
 30
0
 11
11.1806
 21
9.8089
 31
0
  0
POLYLINE
  8
LAYER1
  6
CONTINUOUS
 62
     0
 66
     1
 70
     0
 40
0.0039
 41
0.0039
  0
VERTEX
  8
LAYER1
 10
2.0139
 20
7.6423
 30
0
 70
     0
  0
VERTEX
  8
LAYER1
 10
2.6944
 20
7.6423
 30
0
 70
     0
  0
VERTEX
  8
LAYER1
 10
2.6944
 20
7.545
 30
0
 70
     0
  0
VERTEX
  8
LAYER1
 10
2.0139
 20
7.545
 30
0
 70
     0
  0
VERTEX
  8
LAYER1
 10
2.0139
 20
7.6423
 30
0
 70
     0
  0
SEQEND
  0
LINE
  8
LAYER1
  6
CONTINUOUS
 62
     7
 10
2.0139
 20
7.6423
 30
0
 11
2.0139
 21
7.5589
 31
0
  0
ENDBLK
  8
LAYER1
  0
BLOCK
  8
LAYER1
  2
Group60
 70
     0
 10
0
 20
0
 30
0
  0
LINE
  8
LAYER1
  6
CONTINUOUS
 62
     7
 10
2.6806
 20
7.6423
 30
0
 11
2.6806
 21
7.5589
 31
0
  0
POLYLINE
  8
LAYER1
  6
CONTINUOUS
 62
     7
 66
     1
 70
     0
 40
0.0039
 41
0.0039
  0
VERTEX
  8
LAYER1
 10
2.0139
 20
8.2811
 30
0
 70
     0
  0
VERTEX
  8
LAYER1
 10
2.0556
 20
8.2811
 30
0
 70
     0
  0
VERTEX
  8
LAYER1
 10
2.0556
 20
7.6006
 30
0
 70
     0
  0
VERTEX
  8
LAYER1
 10
2.0139
 20
7.6006
 30
0
 70
     0
  0
VERTEX
  8
LAYER1
 10
2.0139
 20
8.2811
 30
0
 70
     0
  0
SEQEND
  0
POLYLINE
  8
LAYER1
  6
CONTINUOUS
 62
     7
 66
     1
 70
     0
 40
0.0039
 41
0.0039
  0
VERTEX
  8
LAYER1
 10
2.0208
 20
8.2811
 30
0
 70
     0
  0
VERTEX
  8
LAYER1
 10
2.0893
 20
8.2776
 30
0
 70
     0
  0
VERTEX
  8
LAYER1
 10
2.1559
 20
8.2674
 30
0
 70
     0
  0
VERTEX
  8
LAYER1
 10
2.2202
 20
8.2506
 30
0
 70
     0
  0
VERTEX
  8
LAYER1
 10
2.282
 20
8.2279
 30
0
 70
     0
  0
VERTEX
  8
LAYER1
 10
2.3408
 20
8.1993
 30
0
 70
     0
  0
VERTEX
  8
LAYER1
 10
2.3963
 20
8.1654
 30
0
 70
     0
  0
VERTEX
  8
LAYER1
 10
2.4483
 20
8.1265
 30
0
 70
     0
  0
VERTEX
  8
LAYER1
 10
2.4962
 20
8.0829
 30
0
 70
     0
  0
VERTEX
  8
LAYER1
 10
2.5398
 20
8.035
 30
0
 70
     0
  0
VERTEX
  8
LAYER1
 10
2.5787
 20
7.983
 30
0
 70
     0
  0
VERTEX
  8
LAYER1
 10
2.6126
 20
7.9275
 30
0
 70
     0
  0
VERTEX
  8
LAYER1
 10
2.6412
 20
7.8687
 30
0
 70
     0
  0
VERTEX
  8
LAYER1
 10
2.6639
 20
7.8069
 30
0
 70
     0
  0
VERTEX
  8
LAYER1
 10
2.6806
 20
7.7426
 30
0
 70
     0
  0
VERTEX
  8
LAYER1
 10
2.6909
 20
7.676
 30
0
 70
     0
  0
VERTEX
  8
LAYER1
 10
2.6944
 20
7.6075
 30
0
 70
     0
  0
SEQEND
  0
ENDBLK
  8
LAYER1
  0
BLOCK
  8
LAYER1
  2
Group61
 70
     0
 10
0
 20
0
 30
0
  0
INSERT
  8
LAYER1
  2
Group59
 10
0
 20
0
 30
0
  0
INSERT
  8
LAYER1
  2
Group60
 10
0
 20
0
 30
0
  0
ENDBLK
  8
LAYER1
  0
BLOCK
  8
LAYER1
  2
Group62
 70
     0
 10
0
 20
0
 30
0
  0
LINE
  8
LAYER1
  6
CONTINUOUS
 62
     7
 10
1.4444
 20
3.4895
 30
0
 11
1.4444
 21
3.4061
 31
0
  0
POLYLINE
  8
LAYER1
  6
CONTINUOUS
 62
     0
 66
     1
 70
     0
 40
0.0039
 41
0.0039
  0
VERTEX
  8
LAYER1
 10
4.7778
 20
9.1978
 30
0
 70
     0
  0
VERTEX
  8
LAYER1
 10
5.375
 20
9.1978
 30
0
 70
     0
  0
VERTEX
  8
LAYER1
 10
5.375
 20
9.1006
 30
0
 70
     0
  0
VERTEX
  8
LAYER1
 10
4.7778
 20
9.1006
 30
0
 70
     0
  0
VERTEX
  8
LAYER1
 10
4.7778
 20
9.1978
 30
0
 70
     0
  0
SEQEND
  0
POLYLINE
  8
LAYER1
  6
CONTINUOUS
 62
     7
 66
     1
 70
     0
 40
0.0039
 41
0.0039
  0
VERTEX
  8
LAYER1
 10
5.1806
 20
9.5867
 30
0
 70
     0
  0
VERTEX
  8
LAYER1
 10
5.2083
 20
9.5589
 30
0
 70
     0
  0
VERTEX
  8
LAYER1
 10
4.7917
 20
9.1561
 30
0
 70
     0
  0
VERTEX
  8
LAYER1
 10
4.7778
 20
9.17
 30
0
 70
     0
  0
VERTEX
  8
LAYER1
 10
5.1806
 20
9.5867
 30
0
 70
     0
  0
SEQEND
  0
POLYLINE
  8
LAYER1
  6
CONTINUOUS
 62
     7
 66
     1
 70
     0
 40
0.0039
 41
0.0039
  0
VERTEX
  8
LAYER1
 10
5.2021
 20
9.5805
 30
0
 70
     0
  0
VERTEX
  8
LAYER1
 10
5.2424
 20
9.5363
 30
0
 70
     0
  0
VERTEX
  8
LAYER1
 10
5.2774
 20
9.4897
 30
0
 70
     0
  0
VERTEX
  8
LAYER1
 10
5.3071
 20
9.4408
 30
0
 70
     0
  0
VERTEX
  8
LAYER1
 10
5.3315
 20
9.3896
 30
0
 70
     0
  0
VERTEX
  8
LAYER1
 10
5.3505
 20
9.3361
 30
0
 70
     0
  0
VERTEX
  8
LAYER1
 10
5.3641
 20
9.2805
 30
0
 70
     0
  0
VERTEX
  8
LAYER1
 10
5.3723
 20
9.2228
 30
0
 70
     0
  0
VERTEX
  8
LAYER1
 10
5.375
 20
9.1631
 30
0
 70
     0
  0
SEQEND
  0
LINE
  8
LAYER1
  6
CONTINUOUS
 62
     7
 10
4.7778
 20
9.1978
 30
0
 11
4.7778
 21
9.1145
 31
0
  0
ENDBLK
  8
LAYER1
  0
BLOCK
  8
LAYER1
  2
Group63
 70
     0
 10
0
 20
0
 30
0
  0
LINE
  8
LAYER1
  6
CONTINUOUS
 62
     7
 10
5.3611
 20
9.1978
 30
0
 11
5.3611
 21
9.1145
 31
0
  0
POLYLINE
  8
LAYER1
  6
CONTINUOUS
 62
     0
 66
     1
 70
     0
 40
0.0039
 41
0.0039
  0
VERTEX
  8
LAYER1
 10
11.7083
 20
9.0589
 30
0
 70
     0
  0
VERTEX
  8
LAYER1
 10
14.0278
 20
9.0589
 30
0
 70
     0
  0
VERTEX
  8
LAYER1
 10
14.0278
 20
8.9617
 30
0
 70
     0
  0
VERTEX
  8
LAYER1
 10
11.7083
 20
8.9617
 30
0
 70
     0
  0
VERTEX
  8
LAYER1
 10
11.7083
 20
9.0589
 30
0
 70
     0
  0
SEQEND
  0
LINE
  8
LAYER1
  6
CONTINUOUS
 62
     7
 10
14.0139
 20
8.9756
 30
0
 11
14.0139
 21
9.0589
 31
0
  0
ENDBLK
  8
LAYER1
  0
BLOCK
  8
LAYER1
  2
Group64
 70
     0
 10
0
 20
0
 30
0
  0
LINE
  8
LAYER1
  6
CONTINUOUS
 62
     7
 10
11.7083
 20
8.9756
 30
0
 11
11.7083
 21
9.0589
 31
0
  0
POLYLINE
  8
LAYER1
  6
CONTINUOUS
 62
     7
 66
     1
 70
     0
 40
0.0039
 41
0.0039
  0
VERTEX
  8
LAYER1
 10
11.7083
 20
9.045
 30
0
 70
     0
  0
VERTEX
  8
LAYER1
 10
11.7778
 20
9.045
 30
0
 70
     0
  0
VERTEX
  8
LAYER1
 10
11.7778
 20
9.0034
 30
0
 70
     0
  0
VERTEX
  8
LAYER1
 10
11.7083
 20
9.0034
 30
0
 70
     0
  0
VERTEX
  8
LAYER1
 10
11.7083
 20
9.045
 30
0
 70
     0
  0
SEQEND
  0
POLYLINE
  8
LAYER1
  6
CONTINUOUS
 62
     7
 66
     1
 70
     0
 40
0.0039
 41
0.0039
  0
VERTEX
  8
LAYER1
 10
12.4444
 20
9.045
 30
0
 70
     0
  0
VERTEX
  8
LAYER1
 10
12.5139
 20
9.045
 30
0
 70
     0
  0
VERTEX
  8
LAYER1
 10
12.5139
 20
9.0034
 30
0
 70
     0
  0
VERTEX
  8
LAYER1
 10
12.4444
 20
9.0034
 30
0
 70
     0
  0
VERTEX
  8
LAYER1
 10
12.4444
 20
9.045
 30
0
 70
     0
  0
SEQEND
  0
ENDBLK
  8
LAYER1
  0
BLOCK
  8
LAYER1
  2
Group65
 70
     0
 10
0
 20
0
 30
0
  0
LINE
  8
LAYER1
  6
CONTINUOUS
 62
     7
 10
11.7639
 20
9.0311
 30
0
 11
12.4444
 21
9.0311
 31
0
  0
POLYLINE
  8
LAYER1
  6
CONTINUOUS
 62
     7
 66
     1
 70
     0
 40
0.0039
 41
0.0039
  0
VERTEX
  8
LAYER1
 10
12.4583
 20
9.0173
 30
0
 70
     0
  0
VERTEX
  8
LAYER1
 10
12.5278
 20
9.0173
 30
0
 70
     0
  0
VERTEX
  8
LAYER1
 10
12.5278
 20
8.9756
 30
0
 70
     0
  0
VERTEX
  8
LAYER1
 10
12.4583
 20
8.9756
 30
0
 70
     0
  0
VERTEX
  8
LAYER1
 10
12.4583
 20
9.0173
 30
0
 70
     0
  0
SEQEND
  0
POLYLINE
  8
LAYER1
  6
CONTINUOUS
 62
     7
 66
     1
 70
     0
 40
0.0039
 41
0.0039
  0
VERTEX
  8
LAYER1
 10
13.2083
 20
9.0173
 30
0
 70
     0
  0
VERTEX
  8
LAYER1
 10
13.2778
 20
9.0173
 30
0
 70
     0
  0
VERTEX
  8
LAYER1
 10
13.2778
 20
8.9756
 30
0
 70
     0
  0
VERTEX
  8
LAYER1
 10
13.2083
 20
8.9756
 30
0
 70
     0
  0
VERTEX
  8
LAYER1
 10
13.2083
 20
9.0173
 30
0
 70
     0
  0
SEQEND
  0
ENDBLK
  8
LAYER1
  0
BLOCK
  8
LAYER1
  2
Group66
 70
     0
 10
0
 20
0
 30
0
  0
LINE
  8
LAYER1
  6
CONTINUOUS
 62
     7
 10
12.5139
 20
9.0034
 30
0
 11
13.2083
 21
9.0034
 31
0
  0
POLYLINE
  8
LAYER1
  6
CONTINUOUS
 62
     7
 66
     1
 70
     0
 40
0.0039
 41
0.0039
  0
VERTEX
  8
LAYER1
 10
13.2222
 20
9.045
 30
0
 70
     0
  0
VERTEX
  8
LAYER1
 10
13.2917
 20
9.045
 30
0
 70
     0
  0
VERTEX
  8
LAYER1
 10
13.2917
 20
9.0034
 30
0
 70
     0
  0
VERTEX
  8
LAYER1
 10
13.2222
 20
9.0034
 30
0
 70
     0
  0
VERTEX
  8
LAYER1
 10
13.2222
 20
9.045
 30
0
 70
     0
  0
SEQEND
  0
POLYLINE
  8
LAYER1
  6
CONTINUOUS
 62
     7
 66
     1
 70
     0
 40
0.0039
 41
0.0039
  0
VERTEX
  8
LAYER1
 10
13.9583
 20
9.045
 30
0
 70
     0
  0
VERTEX
  8
LAYER1
 10
14.0278
 20
9.045
 30
0
 70
     0
  0
VERTEX
  8
LAYER1
 10
14.0278
 20
9.0034
 30
0
 70
     0
  0
VERTEX
  8
LAYER1
 10
13.9583
 20
9.0034
 30
0
 70
     0
  0
VERTEX
  8
LAYER1
 10
13.9583
 20
9.045
 30
0
 70
     0
  0
SEQEND
  0
ENDBLK
  8
LAYER1
  0
BLOCK
  8
LAYER1
  2
Group67
 70
     0
 10
0
 20
0
 30
0
  0
INSERT
  8
LAYER1
  2
Group64
 10
0
 20
0
 30
0
  0
INSERT
  8
LAYER1
  2
Group65
 10
0
 20
0
 30
0
  0
INSERT
  8
LAYER1
  2
Group66
 10
0
 20
0
 30
0
  0
ENDBLK
  8
LAYER1
  0
BLOCK
  8
LAYER1
  2
Group68
 70
     0
 10
0
 20
0
 30
0
  0
INSERT
  8
LAYER1
  2
Group63
 10
0
 20
0
 30
0
  0
INSERT
  8
LAYER1
  2
Group67
 10
0
 20
0
 30
0
  0
ENDBLK
  8
LAYER1
  0
BLOCK
  8
LAYER1
  2
Group69
 70
     0
 10
0
 20
0
 30
0
  0
LINE
  8
LAYER1
  6
CONTINUOUS
 62
     7
 10
13.2778
 20
9.0311
 30
0
 11
13.9583
 21
9.0311
 31
0
  0
POLYLINE
  8
LAYER1
  6
CONTINUOUS
 62
     0
 66
     1
 70
     0
 40
0.0039
 41
0.0039
  0
VERTEX
  8
LAYER1
 10
9.9583
 20
8.3228
 30
0
 70
     0
  0
VERTEX
  8
LAYER1
 10
13.0278
 20
8.3228
 30
0
 70
     0
  0
VERTEX
  8
LAYER1
 10
13.0278
 20
8.2256
 30
0
 70
     0
  0
VERTEX
  8
LAYER1
 10
9.9583
 20
8.2256
 30
0
 70
     0
  0
VERTEX
  8
LAYER1
 10
9.9583
 20
8.3228
 30
0
 70
     0
  0
SEQEND
  0
LINE
  8
LAYER1
  6
CONTINUOUS
 62
     7
 10
9.9583
 20
8.2395
 30
0
 11
9.9583
 21
8.3228
 31
0
  0
ENDBLK
  8
LAYER1
  0
BLOCK
  8
LAYER1
  2
Group70
 70
     0
 10
0
 20
0
 30
0
  0
LINE
  8
LAYER1
  6
CONTINUOUS
 62
     7
 10
13.0139
 20
8.2395
 30
0
 11
13.0139
 21
8.3228
 31
0
  0
POLYLINE
  8
LAYER1
  6
CONTINUOUS
 62
     7
 66
     1
 70
     0
 40
0.0039
 41
0.0039
  0
VERTEX
  8
LAYER1
 10
9.9583
 20
8.3228
 30
0
 70
     0
  0
VERTEX
  8
LAYER1
 10
10.0417
 20
8.3228
 30
0
 70
     0
  0
VERTEX
  8
LAYER1
 10
10.0417
 20
8.2811
 30
0
 70
     0
  0
VERTEX
  8
LAYER1
 10
9.9583
 20
8.2811
 30
0
 70
     0
  0
VERTEX
  8
LAYER1
 10
9.9583
 20
8.3228
 30
0
 70
     0
  0
SEQEND
  0
POLYLINE
  8
LAYER1
  6
CONTINUOUS
 62
     7
 66
     1
 70
     0
 40
0.0039
 41
0.0039
  0
VERTEX
  8
LAYER1
 10
10.9444
 20
8.3228
 30
0
 70
     0
  0
VERTEX
  8
LAYER1
 10
11.0139
 20
8.3228
 30
0
 70
     0
  0
VERTEX
  8
LAYER1
 10
11.0139
 20
8.2811
 30
0
 70
     0
  0
VERTEX
  8
LAYER1
 10
10.9444
 20
8.2811
 30
0
 70
     0
  0
VERTEX
  8
LAYER1
 10
10.9444
 20
8.3228
 30
0
 70
     0
  0
SEQEND
  0
ENDBLK
  8
LAYER1
  0
BLOCK
  8
LAYER1
  2
Group71
 70
     0
 10
0
 20
0
 30
0
  0
LINE
  8
LAYER1
  6
CONTINUOUS
 62
     7
 10
11.0139
 20
8.2673
 30
0
 11
11.9583
 21
8.2673
 31
0
  0
POLYLINE
  8
LAYER1
  6
CONTINUOUS
 62
     7
 66
     1
 70
     0
 40
0.0039
 41
0.0039
  0
VERTEX
  8
LAYER1
 10
12.9444
 20
8.3228
 30
0
 70
     0
  0
VERTEX
  8
LAYER1
 10
13.0278
 20
8.3228
 30
0
 70
     0
  0
VERTEX
  8
LAYER1
 10
13.0278
 20
8.2811
 30
0
 70
     0
  0
VERTEX
  8
LAYER1
 10
12.9444
 20
8.2811
 30
0
 70
     0
  0
VERTEX
  8
LAYER1
 10
12.9444
 20
8.3228
 30
0
 70
     0
  0
SEQEND
  0
POLYLINE
  8
LAYER1
  6
CONTINUOUS
 62
     7
 66
     1
 70
     0
 40
0.0039
 41
0.0039
  0
VERTEX
  8
LAYER1
 10
11.9722
 20
8.3228
 30
0
 70
     0
  0
VERTEX
  8
LAYER1
 10
12.0417
 20
8.3228
 30
0
 70
     0
  0
VERTEX
  8
LAYER1
 10
12.0417
 20
8.2811
 30
0
 70
     0
  0
VERTEX
  8
LAYER1
 10
11.9722
 20
8.2811
 30
0
 70
     0
  0
VERTEX
  8
LAYER1
 10
11.9722
 20
8.3228
 30
0
 70
     0
  0
SEQEND
  0
ENDBLK
  8
LAYER1
  0
BLOCK
  8
LAYER1
  2
Group72
 70
     0
 10
0
 20
0
 30
0
  0
INSERT
  8
LAYER1
  2
Group70
 10
0
 20
0
 30
0
  0
LINE
  8
LAYER1
  6
CONTINUOUS
 62
     7
 10
10.0278
 20
8.3089
 30
0
 11
10.9444
 21
8.3089
 31
0
  0
POLYLINE
  8
LAYER1
  6
CONTINUOUS
 62
     7
 66
     1
 70
     0
 40
0.0039
 41
0.0039
  0
VERTEX
  8
LAYER1
 10
10.9583
 20
8.2811
 30
0
 70
     0
  0
VERTEX
  8
LAYER1
 10
11.0278
 20
8.2811
 30
0
 70
     0
  0
VERTEX
  8
LAYER1
 10
11.0278
 20
8.2395
 30
0
 70
     0
  0
VERTEX
  8
LAYER1
 10
10.9583
 20
8.2395
 30
0
 70
     0
  0
VERTEX
  8
LAYER1
 10
10.9583
 20
8.2811
 30
0
 70
     0
  0
SEQEND
  0
INSERT
  8
LAYER1
  2
Group71
 10
0
 20
0
 30
0
  0
LINE
  8
LAYER1
  6
CONTINUOUS
 62
     7
 10
12.9444
 20
8.3089
 30
0
 11
12.0278
 21
8.3089
 31
0
  0
POLYLINE
  8
LAYER1
  6
CONTINUOUS
 62
     7
 66
     1
 70
     0
 40
0.0039
 41
0.0039
  0
VERTEX
  8
LAYER1
 10
11.9583
 20
8.2811
 30
0
 70
     0
  0
VERTEX
  8
LAYER1
 10
12.0278
 20
8.2811
 30
0
 70
     0
  0
VERTEX
  8
LAYER1
 10
12.0278
 20
8.2395
 30
0
 70
     0
  0
VERTEX
  8
LAYER1
 10
11.9583
 20
8.2395
 30
0
 70
     0
  0
VERTEX
  8
LAYER1
 10
11.9583
 20
8.2811
 30
0
 70
     0
  0
SEQEND
  0
ENDBLK
  8
LAYER1
  0
BLOCK
  8
LAYER1
  2
Group73
 70
     0
 10
0
 20
0
 30
0
  0
INSERT
  8
LAYER1
  2
Group69
 10
0
 20
0
 30
0
  0
INSERT
  8
LAYER1
  2
Group72
 10
0
 20
0
 30
0
  0
ENDBLK
  8
LAYER1
  0
BLOCK
  8
LAYER1
  2
Group74
 70
     0
 10
0
 20
0
 30
0
  0
POLYLINE
  8
LAYER1
  6
CONTINUOUS
 62
     0
 66
     1
 70
     0
 40
0.0039
 41
0.0039
  0
VERTEX
  8
LAYER1
 10
11.9722
 20
7.4339
 30
0
 70
     0
  0
VERTEX
  8
LAYER1
 10
12.6111
 20
7.4339
 30
0
 70
     0
  0
VERTEX
  8
LAYER1
 10
12.6111
 20
7.3367
 30
0
 70
     0
  0
VERTEX
  8
LAYER1
 10
11.9722
 20
7.3367
 30
0
 70
     0
  0
VERTEX
  8
LAYER1
 10
11.9722
 20
7.4339
 30
0
 70
     0
  0
SEQEND
  0
LINE
  8
LAYER1
  6
CONTINUOUS
 62
     7
 10
11.9722
 20
7.4339
 30
0
 11
11.9722
 21
7.3506
 31
0
  0
ENDBLK
  8
LAYER1
  0
BLOCK
  8
LAYER1
  2
Group75
 70
     0
 10
0
 20
0
 30
0
  0
INSERT
  8
LAYER1
  2
Group74
 10
0
 20
0
 30
0
  0
LINE
  8
LAYER1
  6
CONTINUOUS
 62
     7
 10
12.5972
 20
7.4339
 30
0
 11
12.5972
 21
7.3506
 31
0
  0
POLYLINE
  8
LAYER1
  6
CONTINUOUS
 62
     7
 66
     1
 70
     0
 40
0.0039
 41
0.0039
  0
VERTEX
  8
LAYER1
 10
11.6528
 20
7.4061
 30
0
 70
     0
  0
VERTEX
  8
LAYER1
 10
12.2917
 20
7.4061
 30
0
 70
     0
  0
VERTEX
  8
LAYER1
 10
12.2917
 20
7.3645
 30
0
 70
     0
  0
VERTEX
  8
LAYER1
 10
11.6528
 20
7.3645
 30
0
 70
     0
  0
VERTEX
  8
LAYER1
 10
11.6528
 20
7.4061
 30
0
 70
     0
  0
SEQEND
  0
ENDBLK
  8
LAYER1
  0
BLOCK
  8
LAYER1
  2
Group76
 70
     0
 10
0
 20
0
 30
0
  0
POLYLINE
  8
LAYER1
  6
CONTINUOUS
 62
     0
 66
     1
 70
     0
 40
0.0039
 41
0.0039
  0
VERTEX
  8
LAYER1
 10
9.3194
 20
7.4339
 30
0
 70
     0
  0
VERTEX
  8
LAYER1
 10
10.0833
 20
7.4339
 30
0
 70
     0
  0
VERTEX
  8
LAYER1
 10
10.0833
 20
7.3367
 30
0
 70
     0
  0
VERTEX
  8
LAYER1
 10
9.3194
 20
7.3367
 30
0
 70
     0
  0
VERTEX
  8
LAYER1
 10
9.3194
 20
7.4339
 30
0
 70
     0
  0
SEQEND
  0
LINE
  8
LAYER1
  6
CONTINUOUS
 62
     7
 10
9.3194
 20
7.4339
 30
0
 11
9.3194
 21
7.3506
 31
0
  0
ENDBLK
  8
LAYER1
  0
BLOCK
  8
LAYER1
  2
Group77
 70
     0
 10
0
 20
0
 30
0
  0
INSERT
  8
LAYER1
  2
Group76
 10
0
 20
0
 30
0
  0
LINE
  8
LAYER1
  6
CONTINUOUS
 62
     7
 10
10.0694
 20
7.4339
 30
0
 11
10.0694
 21
7.3506
 31
0
  0
POLYLINE
  8
LAYER1
  6
CONTINUOUS
 62
     7
 66
     1
 70
     0
 40
0.0039
 41
0.0039
  0
VERTEX
  8
LAYER1
 10
8.9444
 20
7.4061
 30
0
 70
     0
  0
VERTEX
  8
LAYER1
 10
9.7083
 20
7.4061
 30
0
 70
     0
  0
VERTEX
  8
LAYER1
 10
9.7083
 20
7.3645
 30
0
 70
     0
  0
VERTEX
  8
LAYER1
 10
8.9444
 20
7.3645
 30
0
 70
     0
  0
VERTEX
  8
LAYER1
 10
8.9444
 20
7.4061
 30
0
 70
     0
  0
SEQEND
  0
ENDBLK
  8
LAYER1
  0
BLOCK
  8
LAYER1
  2
Group78
 70
     0
 10
0
 20
0
 30
0
  0
POLYLINE
  8
LAYER1
  6
CONTINUOUS
 62
     0
 66
     1
 70
     0
 40
0.0039
 41
0.0039
  0
VERTEX
  8
LAYER1
 10
13.1667
 20
7.4339
 30
0
 70
     0
  0
VERTEX
  8
LAYER1
 10
13.7639
 20
7.4339
 30
0
 70
     0
  0
VERTEX
  8
LAYER1
 10
13.7639
 20
7.3367
 30
0
 70
     0
  0
VERTEX
  8
LAYER1
 10
13.1667
 20
7.3367
 30
0
 70
     0
  0
VERTEX
  8
LAYER1
 10
13.1667
 20
7.4339
 30
0
 70
     0
  0
SEQEND
  0
LINE
  8
LAYER1
  6
CONTINUOUS
 62
     7
 10
13.1667
 20
7.4339
 30
0
 11
13.1667
 21
7.3506
 31
0
  0
ENDBLK
  8
LAYER1
  0
BLOCK
  8
LAYER1
  2
Group79
 70
     0
 10
0
 20
0
 30
0
  0
INSERT
  8
LAYER1
  2
Group78
 10
0
 20
0
 30
0
  0
LINE
  8
LAYER1
  6
CONTINUOUS
 62
     7
 10
13.75
 20
7.4339
 30
0
 11
13.75
 21
7.3506
 31
0
  0
POLYLINE
  8
LAYER1
  6
CONTINUOUS
 62
     7
 66
     1
 70
     0
 40
0.0039
 41
0.0039
  0
VERTEX
  8
LAYER1
 10
12.875
 20
7.4061
 30
0
 70
     0
  0
VERTEX
  8
LAYER1
 10
13.4722
 20
7.4061
 30
0
 70
     0
  0
VERTEX
  8
LAYER1
 10
13.4722
 20
7.3645
 30
0
 70
     0
  0
VERTEX
  8
LAYER1
 10
12.875
 20
7.3645
 30
0
 70
     0
  0
VERTEX
  8
LAYER1
 10
12.875
 20
7.4061
 30
0
 70
     0
  0
SEQEND
  0
ENDBLK
  8
LAYER1
  0
BLOCK
  8
LAYER1
  2
Group80
 70
     0
 10
0
 20
0
 30
0
  0
POLYLINE
  8
LAYER1
  6
CONTINUOUS
 62
     0
 66
     1
 70
     0
 40
0.0039
 41
0.0039
  0
VERTEX
  8
LAYER1
 10
10.7778
 20
7.4339
 30
0
 70
     0
  0
VERTEX
  8
LAYER1
 10
11.4583
 20
7.4339
 30
0
 70
     0
  0
VERTEX
  8
LAYER1
 10
11.4583
 20
7.3367
 30
0
 70
     0
  0
VERTEX
  8
LAYER1
 10
10.7778
 20
7.3367
 30
0
 70
     0
  0
VERTEX
  8
LAYER1
 10
10.7778
 20
7.4339
 30
0
 70
     0
  0
SEQEND
  0
LINE
  8
LAYER1
  6
CONTINUOUS
 62
     7
 10
10.7778
 20
7.4339
 30
0
 11
10.7778
 21
7.3506
 31
0
  0
ENDBLK
  8
LAYER1
  0
BLOCK
  8
LAYER1
  2
Group81
 70
     0
 10
0
 20
0
 30
0
  0
INSERT
  8
LAYER1
  2
Group80
 10
0
 20
0
 30
0
  0
LINE
  8
LAYER1
  6
CONTINUOUS
 62
     7
 10
11.4444
 20
7.4339
 30
0
 11
11.4444
 21
7.3506
 31
0
  0
POLYLINE
  8
LAYER1
  6
CONTINUOUS
 62
     7
 66
     1
 70
     0
 40
0.0039
 41
0.0039
  0
VERTEX
  8
LAYER1
 10
10.4444
 20
7.4061
 30
0
 70
     0
  0
VERTEX
  8
LAYER1
 10
11.125
 20
7.4061
 30
0
 70
     0
  0
VERTEX
  8
LAYER1
 10
11.125
 20
7.3645
 30
0
 70
     0
  0
VERTEX
  8
LAYER1
 10
10.4444
 20
7.3645
 30
0
 70
     0
  0
VERTEX
  8
LAYER1
 10
10.4444
 20
7.4061
 30
0
 70
     0
  0
SEQEND
  0
ENDBLK
  8
LAYER1
  0
BLOCK
  8
LAYER1
  2
Group82
 70
     0
 10
0
 20
0
 30
0
  0
POLYLINE
  8
LAYER1
  6
CONTINUOUS
 62
     0
 66
     1
 70
     0
 40
0.0039
 41
0.0039
  0
VERTEX
  8
LAYER1
 10
9.4028
 20
6.2256
 30
0
 70
     0
  0
VERTEX
  8
LAYER1
 10
10.1667
 20
6.2256
 30
0
 70
     0
  0
VERTEX
  8
LAYER1
 10
10.1667
 20
6.1284
 30
0
 70
     0
  0
VERTEX
  8
LAYER1
 10
9.4028
 20
6.1284
 30
0
 70
     0
  0
VERTEX
  8
LAYER1
 10
9.4028
 20
6.2256
 30
0
 70
     0
  0
SEQEND
  0
LINE
  8
LAYER1
  6
CONTINUOUS
 62
     7
 10
9.4028
 20
6.2256
 30
0
 11
9.4028
 21
6.1423
 31
0
  0
ENDBLK
  8
LAYER1
  0
BLOCK
  8
LAYER1
  2
Group83
 70
     0
 10
0
 20
0
 30
0
  0
INSERT
  8
LAYER1
  2
Group82
 10
0
 20
0
 30
0
  0
LINE
  8
LAYER1
  6
CONTINUOUS
 62
     7
 10
10.1528
 20
6.2256
 30
0
 11
10.1528
 21
6.1423
 31
0
  0
POLYLINE
  8
LAYER1
  6
CONTINUOUS
 62
     7
 66
     1
 70
     0
 40
0.0039
 41
0.0039
  0
VERTEX
  8
LAYER1
 10
9.6667
 20
6.4617
 30
0
 70
     0
  0
VERTEX
  8
LAYER1
 10
9.6944
 20
6.4478
 30
0
 70
     0
  0
VERTEX
  8
LAYER1
 10
9.4306
 20
6.1839
 30
0
 70
     0
  0
VERTEX
  8
LAYER1
 10
9.4028
 20
6.1978
 30
0
 70
     0
  0
VERTEX
  8
LAYER1
 10
9.6667
 20
6.4617
 30
0
 70
     0
  0
SEQEND
  0
POLYLINE
  8
LAYER1
  6
CONTINUOUS
 62
     7
 66
     1
 70
     0
 40
0.0039
 41
0.0039
  0
VERTEX
  8
LAYER1
 10
9.7222
 20
6.4617
 30
0
 70
     0
  0
VERTEX
  8
LAYER1
 10
9.9861
 20
6.1978
 30
0
 70
     0
  0
VERTEX
  8
LAYER1
 10
9.9583
 20
6.1839
 30
0
 70
     0
  0
VERTEX
  8
LAYER1
 10
9.6944
 20
6.4478
 30
0
 70
     0
  0
VERTEX
  8
LAYER1
 10
9.7222
 20
6.4617
 30
0
 70
     0
  0
SEQEND
  0
ENDBLK
  8
LAYER1
  0
BLOCK
  8
LAYER1
  2
Group84
 70
     0
 10
0
 20
0
 30
0
  0
POLYLINE
  8
LAYER1
  6
CONTINUOUS
 62
     0
 66
     1
 70
     0
 40
0.0039
 41
0.0039
  0
VERTEX
  8
LAYER1
 10
10.9028
 20
6.2256
 30
0
 70
     0
  0
VERTEX
  8
LAYER1
 10
11.5833
 20
6.2256
 30
0
 70
     0
  0
VERTEX
  8
LAYER1
 10
11.5833
 20
6.1284
 30
0
 70
     0
  0
VERTEX
  8
LAYER1
 10
10.9028
 20
6.1284
 30
0
 70
     0
  0
VERTEX
  8
LAYER1
 10
10.9028
 20
6.2256
 30
0
 70
     0
  0
SEQEND
  0
LINE
  8
LAYER1
  6
CONTINUOUS
 62
     7
 10
10.9028
 20
6.2256
 30
0
 11
10.9028
 21
6.1423
 31
0
  0
ENDBLK
  8
LAYER1
  0
BLOCK
  8
LAYER1
  2
Group85
 70
     0
 10
0
 20
0
 30
0
  0
INSERT
  8
LAYER1
  2
Group84
 10
0
 20
0
 30
0
  0
LINE
  8
LAYER1
  6
CONTINUOUS
 62
     7
 10
11.5694
 20
6.2256
 30
0
 11
11.5694
 21
6.1423
 31
0
  0
POLYLINE
  8
LAYER1
  6
CONTINUOUS
 62
     7
 66
     1
 70
     0
 40
0.0039
 41
0.0039
  0
VERTEX
  8
LAYER1
 10
11.1389
 20
6.4339
 30
0
 70
     0
  0
VERTEX
  8
LAYER1
 10
11.1528
 20
6.42
 30
0
 70
     0
  0
VERTEX
  8
LAYER1
 10
10.9167
 20
6.1839
 30
0
 70
     0
  0
VERTEX
  8
LAYER1
 10
10.9028
 20
6.1978
 30
0
 70
     0
  0
VERTEX
  8
LAYER1
 10
11.1389
 20
6.4339
 30
0
 70
     0
  0
SEQEND
  0
POLYLINE
  8
LAYER1
  6
CONTINUOUS
 62
     7
 66
     1
 70
     0
 40
0.0039
 41
0.0039
  0
VERTEX
  8
LAYER1
 10
11.1806
 20
6.4339
 30
0
 70
     0
  0
VERTEX
  8
LAYER1
 10
11.4167
 20
6.1978
 30
0
 70
     0
  0
VERTEX
  8
LAYER1
 10
11.3889
 20
6.1839
 30
0
 70
     0
  0
VERTEX
  8
LAYER1
 10
11.1528
 20
6.42
 30
0
 70
     0
  0
VERTEX
  8
LAYER1
 10
11.1806
 20
6.4339
 30
0
 70
     0
  0
SEQEND
  0
ENDBLK
  8
LAYER1
  0
BLOCK
  8
LAYER1
  2
Group86
 70
     0
 10
0
 20
0
 30
0
  0
POLYLINE
  8
LAYER1
  6
CONTINUOUS
 62
     0
 66
     1
 70
     0
 40
0.0039
 41
0.0039
  0
VERTEX
  8
LAYER1
 10
12.2917
 20
6.2395
 30
0
 70
     0
  0
VERTEX
  8
LAYER1
 10
12.9306
 20
6.2395
 30
0
 70
     0
  0
VERTEX
  8
LAYER1
 10
12.9306
 20
6.1423
 30
0
 70
     0
  0
VERTEX
  8
LAYER1
 10
12.2917
 20
6.1423
 30
0
 70
     0
  0
VERTEX
  8
LAYER1
 10
12.2917
 20
6.2395
 30
0
 70
     0
  0
SEQEND
  0
LINE
  8
LAYER1
  6
CONTINUOUS
 62
     7
 10
12.2917
 20
6.2395
 30
0
 11
12.2917
 21
6.1561
 31
0
  0
ENDBLK
  8
LAYER1
  0
BLOCK
  8
LAYER1
  2
Group87
 70
     0
 10
0
 20
0
 30
0
  0
LINE
  8
LAYER1
  6
CONTINUOUS
 62
     7
 10
12.9167
 20
6.2395
 30
0
 11
12.9167
 21
6.1561
 31
0
  0
POLYLINE
  8
LAYER1
  6
CONTINUOUS
 62
     7
 66
     1
 70
     0
 40
0.0039
 41
0.0039
  0
VERTEX
  8
LAYER1
 10
12.5139
 20
6.4478
 30
0
 70
     0
  0
VERTEX
  8
LAYER1
 10
12.5278
 20
6.42
 30
0
 70
     0
  0
VERTEX
  8
LAYER1
 10
12.3056
 20
6.1978
 30
0
 70
     0
  0
VERTEX
  8
LAYER1
 10
12.2917
 20
6.2256
 30
0
 70
     0
  0
VERTEX
  8
LAYER1
 10
12.5139
 20
6.4478
 30
0
 70
     0
  0
SEQEND
  0
POLYLINE
  8
LAYER1
  6
CONTINUOUS
 62
     7
 66
     1
 70
     0
 40
0.0039
 41
0.0039
  0
VERTEX
  8
LAYER1
 10
12.5556
 20
6.4478
 30
0
 70
     0
  0
VERTEX
  8
LAYER1
 10
12.7778
 20
6.2256
 30
0
 70
     0
  0
VERTEX
  8
LAYER1
 10
12.75
 20
6.1978
 30
0
 70
     0
  0
VERTEX
  8
LAYER1
 10
12.5278
 20
6.42
 30
0
 70
     0
  0
VERTEX
  8
LAYER1
 10
12.5556
 20
6.4478
 30
0
 70
     0
  0
SEQEND
  0
ENDBLK
  8
LAYER1
  0
BLOCK
  8
LAYER1
  2
Group88
 70
     0
 10
0
 20
0
 30
0
  0
INSERT
  8
LAYER1
  2
Group86
 10
0
 20
0
 30
0
  0
INSERT
  8
LAYER1
  2
Group87
 10
0
 20
0
 30
0
  0
ENDBLK
  8
LAYER1
  0
BLOCK
  8
LAYER1
  2
Group89
 70
     0
 10
0
 20
0
 30
0
  0
POLYLINE
  8
LAYER1
  6
CONTINUOUS
 62
     0
 66
     1
 70
     0
 40
0.0039
 41
0.0039
  0
VERTEX
  8
LAYER1
 10
8.9167
 20
5.1839
 30
0
 70
     0
  0
VERTEX
  8
LAYER1
 10
9.6806
 20
5.1839
 30
0
 70
     0
  0
VERTEX
  8
LAYER1
 10
9.6806
 20
5.0867
 30
0
 70
     0
  0
VERTEX
  8
LAYER1
 10
8.9167
 20
5.0867
 30
0
 70
     0
  0
VERTEX
  8
LAYER1
 10
8.9167
 20
5.1839
 30
0
 70
     0
  0
SEQEND
  0
LINE
  8
LAYER1
  6
CONTINUOUS
 62
     7
 10
8.9167
 20
5.1839
 30
0
 11
8.9167
 21
5.1006
 31
0
  0
POLYLINE
  8
LAYER1
  6
CONTINUOUS
 62
     0
 66
     1
 70
     0
 40
0.0039
 41
0.0039
  0
VERTEX
  8
LAYER1
 10
9.6667
 20
5.1839
 30
0
 70
     0
  0
VERTEX
  8
LAYER1
 10
10.4306
 20
5.1839
 30
0
 70
     0
  0
VERTEX
  8
LAYER1
 10
10.4306
 20
5.0867
 30
0
 70
     0
  0
VERTEX
  8
LAYER1
 10
9.6667
 20
5.0867
 30
0
 70
     0
  0
VERTEX
  8
LAYER1
 10
9.6667
 20
5.1839
 30
0
 70
     0
  0
SEQEND
  0
ENDBLK
  8
LAYER1
  0
BLOCK
  8
LAYER1
  2
Group90
 70
     0
 10
0
 20
0
 30
0
  0
LINE
  8
LAYER1
  6
CONTINUOUS
 62
     7
 10
10.4167
 20
5.1839
 30
0
 11
10.4167
 21
5.1006
 31
0
  0
POLYLINE
  8
LAYER1
  6
CONTINUOUS
 62
     7
 66
     1
 70
     0
 40
0.0039
 41
0.0039
  0
VERTEX
  8
LAYER1
 10
9.1806
 20
5.42
 30
0
 70
     0
  0
VERTEX
  8
LAYER1
 10
9.2083
 20
5.4061
 30
0
 70
     0
  0
VERTEX
  8
LAYER1
 10
8.9444
 20
5.1423
 30
0
 70
     0
  0
VERTEX
  8
LAYER1
 10
8.9167
 20
5.1561
 30
0
 70
     0
  0
VERTEX
  8
LAYER1
 10
9.1806
 20
5.42
 30
0
 70
     0
  0
SEQEND
  0
POLYLINE
  8
LAYER1
  6
CONTINUOUS
 62
     7
 66
     1
 70
     0
 40
0.0039
 41
0.0039
  0
VERTEX
  8
LAYER1
 10
9.2222
 20
5.42
 30
0
 70
     0
  0
VERTEX
  8
LAYER1
 10
9.4861
 20
5.1561
 30
0
 70
     0
  0
VERTEX
  8
LAYER1
 10
9.4722
 20
5.1423
 30
0
 70
     0
  0
VERTEX
  8
LAYER1
 10
9.2083
 20
5.4061
 30
0
 70
     0
  0
VERTEX
  8
LAYER1
 10
9.2222
 20
5.42
 30
0
 70
     0
  0
SEQEND
  0
ENDBLK
  8
LAYER1
  0
BLOCK
  8
LAYER1
  2
Group91
 70
     0
 10
0
 20
0
 30
0
  0
POLYLINE
  8
LAYER1
  6
CONTINUOUS
 62
     7
 66
     1
 70
     0
 40
0.0039
 41
0.0039
  0
VERTEX
  8
LAYER1
 10
10.1528
 20
5.42
 30
0
 70
     0
  0
VERTEX
  8
LAYER1
 10
10.4167
 20
5.1561
 30
0
 70
     0
  0
VERTEX
  8
LAYER1
 10
10.3889
 20
5.1423
 30
0
 70
     0
  0
VERTEX
  8
LAYER1
 10
10.125
 20
5.4061
 30
0
 70
     0
  0
VERTEX
  8
LAYER1
 10
10.1528
 20
5.42
 30
0
 70
     0
  0
SEQEND
  0
POLYLINE
  8
LAYER1
  6
CONTINUOUS
 62
     7
 66
     1
 70
     0
 40
0.0039
 41
0.0039
  0
VERTEX
  8
LAYER1
 10
10.1111
 20
5.42
 30
0
 70
     0
  0
VERTEX
  8
LAYER1
 10
10.125
 20
5.4061
 30
0
 70
     0
  0
VERTEX
  8
LAYER1
 10
9.8611
 20
5.1423
 30
0
 70
     0
  0
VERTEX
  8
LAYER1
 10
9.8472
 20
5.1561
 30
0
 70
     0
  0
VERTEX
  8
LAYER1
 10
10.1111
 20
5.42
 30
0
 70
     0
  0
SEQEND
  0
ENDBLK
  8
LAYER1
  0
BLOCK
  8
LAYER1
  2
Group92
 70
     0
 10
0
 20
0
 30
0
  0
INSERT
  8
LAYER1
  2
Group89
 10
0
 20
0
 30
0
  0
INSERT
  8
LAYER1
  2
Group90
 10
0
 20
0
 30
0
  0
INSERT
  8
LAYER1
  2
Group91
 10
0
 20
0
 30
0
  0
ENDBLK
  8
LAYER1
  0
BLOCK
  8
LAYER1
  2
Group93
 70
     0
 10
0
 20
0
 30
0
  0
POLYLINE
  8
LAYER1
  6
CONTINUOUS
 62
     0
 66
     1
 70
     0
 40
0.0039
 41
0.0039
  0
VERTEX
  8
LAYER1
 10
10.6667
 20
5.1839
 30
0
 70
     0
  0
VERTEX
  8
LAYER1
 10
11.3472
 20
5.1839
 30
0
 70
     0
  0
VERTEX
  8
LAYER1
 10
11.3472
 20
5.0867
 30
0
 70
     0
  0
VERTEX
  8
LAYER1
 10
10.6667
 20
5.0867
 30
0
 70
     0
  0
VERTEX
  8
LAYER1
 10
10.6667
 20
5.1839
 30
0
 70
     0
  0
SEQEND
  0
LINE
  8
LAYER1
  6
CONTINUOUS
 62
     7
 10
10.6667
 20
5.1839
 30
0
 11
10.6667
 21
5.1006
 31
0
  0
POLYLINE
  8
LAYER1
  6
CONTINUOUS
 62
     0
 66
     1
 70
     0
 40
0.0039
 41
0.0039
  0
VERTEX
  8
LAYER1
 10
11.3333
 20
5.1839
 30
0
 70
     0
  0
VERTEX
  8
LAYER1
 10
12.0139
 20
5.1839
 30
0
 70
     0
  0
VERTEX
  8
LAYER1
 10
12.0139
 20
5.0867
 30
0
 70
     0
  0
VERTEX
  8
LAYER1
 10
11.3333
 20
5.0867
 30
0
 70
     0
  0
VERTEX
  8
LAYER1
 10
11.3333
 20
5.1839
 30
0
 70
     0
  0
SEQEND
  0
ENDBLK
  8
LAYER1
  0
BLOCK
  8
LAYER1
  2
Group94
 70
     0
 10
0
 20
0
 30
0
  0
LINE
  8
LAYER1
  6
CONTINUOUS
 62
     7
 10
12
 20
5.1839
 30
0
 11
12
 21
5.1006
 31
0
  0
POLYLINE
  8
LAYER1
  6
CONTINUOUS
 62
     7
 66
     1
 70
     0
 40
0.0039
 41
0.0039
  0
VERTEX
  8
LAYER1
 10
10.9028
 20
5.3923
 30
0
 70
     0
  0
VERTEX
  8
LAYER1
 10
10.9306
 20
5.3784
 30
0
 70
     0
  0
VERTEX
  8
LAYER1
 10
10.6944
 20
5.1423
 30
0
 70
     0
  0
VERTEX
  8
LAYER1
 10
10.6667
 20
5.1561
 30
0
 70
     0
  0
VERTEX
  8
LAYER1
 10
10.9028
 20
5.3923
 30
0
 70
     0
  0
SEQEND
  0
POLYLINE
  8
LAYER1
  6
CONTINUOUS
 62
     7
 66
     1
 70
     0
 40
0.0039
 41
0.0039
  0
VERTEX
  8
LAYER1
 10
10.9444
 20
5.3923
 30
0
 70
     0
  0
VERTEX
  8
LAYER1
 10
11.1806
 20
5.1561
 30
0
 70
     0
  0
VERTEX
  8
LAYER1
 10
11.1667
 20
5.1423
 30
0
 70
     0
  0
VERTEX
  8
LAYER1
 10
10.9306
 20
5.3784
 30
0
 70
     0
  0
VERTEX
  8
LAYER1
 10
10.9444
 20
5.3923
 30
0
 70
     0
  0
SEQEND
  0
ENDBLK
  8
LAYER1
  0
BLOCK
  8
LAYER1
  2
Group95
 70
     0
 10
0
 20
0
 30
0
  0
POLYLINE
  8
LAYER1
  6
CONTINUOUS
 62
     7
 66
     1
 70
     0
 40
0.0039
 41
0.0039
  0
VERTEX
  8
LAYER1
 10
11.7639
 20
5.3923
 30
0
 70
     0
  0
VERTEX
  8
LAYER1
 10
12
 20
5.1561
 30
0
 70
     0
  0
VERTEX
  8
LAYER1
 10
11.9722
 20
5.1423
 30
0
 70
     0
  0
VERTEX
  8
LAYER1
 10
11.7361
 20
5.3784
 30
0
 70
     0
  0
VERTEX
  8
LAYER1
 10
11.7639
 20
5.3923
 30
0
 70
     0
  0
SEQEND
  0
POLYLINE
  8
LAYER1
  6
CONTINUOUS
 62
     7
 66
     1
 70
     0
 40
0.0039
 41
0.0039
  0
VERTEX
  8
LAYER1
 10
11.7222
 20
5.3923
 30
0
 70
     0
  0
VERTEX
  8
LAYER1
 10
11.7361
 20
5.3784
 30
0
 70
     0
  0
VERTEX
  8
LAYER1
 10
11.5
 20
5.1423
 30
0
 70
     0
  0
VERTEX
  8
LAYER1
 10
11.4861
 20
5.1561
 30
0
 70
     0
  0
VERTEX
  8
LAYER1
 10
11.7222
 20
5.3923
 30
0
 70
     0
  0
SEQEND
  0
ENDBLK
  8
LAYER1
  0
BLOCK
  8
LAYER1
  2
Group96
 70
     0
 10
0
 20
0
 30
0
  0
INSERT
  8
LAYER1
  2
Group93
 10
0
 20
0
 30
0
  0
INSERT
  8
LAYER1
  2
Group94
 10
0
 20
0
 30
0
  0
INSERT
  8
LAYER1
  2
Group95
 10
0
 20
0
 30
0
  0
ENDBLK
  8
LAYER1
  0
BLOCK
  8
LAYER1
  2
Group97
 70
     0
 10
0
 20
0
 30
0
  0
POLYLINE
  8
LAYER1
  6
CONTINUOUS
 62
     0
 66
     1
 70
     0
 40
0.0039
 41
0.0039
  0
VERTEX
  8
LAYER1
 10
12.3472
 20
5.1978
 30
0
 70
     0
  0
VERTEX
  8
LAYER1
 10
12.9861
 20
5.1978
 30
0
 70
     0
  0
VERTEX
  8
LAYER1
 10
12.9861
 20
5.1006
 30
0
 70
     0
  0
VERTEX
  8
LAYER1
 10
12.3472
 20
5.1006
 30
0
 70
     0
  0
VERTEX
  8
LAYER1
 10
12.3472
 20
5.1978
 30
0
 70
     0
  0
SEQEND
  0
LINE
  8
LAYER1
  6
CONTINUOUS
 62
     7
 10
12.3472
 20
5.1978
 30
0
 11
12.3472
 21
5.1145
 31
0
  0
POLYLINE
  8
LAYER1
  6
CONTINUOUS
 62
     0
 66
     1
 70
     0
 40
0.0039
 41
0.0039
  0
VERTEX
  8
LAYER1
 10
12.9722
 20
5.1978
 30
0
 70
     0
  0
VERTEX
  8
LAYER1
 10
13.6111
 20
5.1978
 30
0
 70
     0
  0
VERTEX
  8
LAYER1
 10
13.6111
 20
5.1006
 30
0
 70
     0
  0
VERTEX
  8
LAYER1
 10
12.9722
 20
5.1006
 30
0
 70
     0
  0
VERTEX
  8
LAYER1
 10
12.9722
 20
5.1978
 30
0
 70
     0
  0
SEQEND
  0
ENDBLK
  8
LAYER1
  0
BLOCK
  8
LAYER1
  2
Group98
 70
     0
 10
0
 20
0
 30
0
  0
LINE
  8
LAYER1
  6
CONTINUOUS
 62
     7
 10
13.5972
 20
5.1978
 30
0
 11
13.5972
 21
5.1145
 31
0
  0
POLYLINE
  8
LAYER1
  6
CONTINUOUS
 62
     7
 66
     1
 70
     0
 40
0.0039
 41
0.0039
  0
VERTEX
  8
LAYER1
 10
13.375
 20
5.4061
 30
0
 70
     0
  0
VERTEX
  8
LAYER1
 10
13.5972
 20
5.1839
 30
0
 70
     0
  0
VERTEX
  8
LAYER1
 10
13.5694
 20
5.1561
 30
0
 70
     0
  0
VERTEX
  8
LAYER1
 10
13.3472
 20
5.3784
 30
0
 70
     0
  0
VERTEX
  8
LAYER1
 10
13.375
 20
5.4061
 30
0
 70
     0
  0
SEQEND
  0
POLYLINE
  8
LAYER1
  6
CONTINUOUS
 62
     7
 66
     1
 70
     0
 40
0.0039
 41
0.0039
  0
VERTEX
  8
LAYER1
 10
13.3333
 20
5.4061
 30
0
 70
     0
  0
VERTEX
  8
LAYER1
 10
13.3472
 20
5.3784
 30
0
 70
     0
  0
VERTEX
  8
LAYER1
 10
13.1389
 20
5.1561
 30
0
 70
     0
  0
VERTEX
  8
LAYER1
 10
13.1111
 20
5.1839
 30
0
 70
     0
  0
VERTEX
  8
LAYER1
 10
13.3333
 20
5.4061
 30
0
 70
     0
  0
SEQEND
  0
ENDBLK
  8
LAYER1
  0
BLOCK
  8
LAYER1
  2
Group99
 70
     0
 10
0
 20
0
 30
0
  0
POLYLINE
  8
LAYER1
  6
CONTINUOUS
 62
     7
 66
     1
 70
     0
 40
0.0039
 41
0.0039
  0
VERTEX
  8
LAYER1
 10
12.5694
 20
5.4061
 30
0
 70
     0
  0
VERTEX
  8
LAYER1
 10
12.5833
 20
5.3784
 30
0
 70
     0
  0
VERTEX
  8
LAYER1
 10
12.375
 20
5.1561
 30
0
 70
     0
  0
VERTEX
  8
LAYER1
 10
12.3472
 20
5.1839
 30
0
 70
     0
  0
VERTEX
  8
LAYER1
 10
12.5694
 20
5.4061
 30
0
 70
     0
  0
SEQEND
  0
POLYLINE
  8
LAYER1
  6
CONTINUOUS
 62
     7
 66
     1
 70
     0
 40
0.0039
 41
0.0039
  0
VERTEX
  8
LAYER1
 10
12.6111
 20
5.4061
 30
0
 70
     0
  0
VERTEX
  8
LAYER1
 10
12.8333
 20
5.1839
 30
0
 70
     0
  0
VERTEX
  8
LAYER1
 10
12.8056
 20
5.1561
 30
0
 70
     0
  0
VERTEX
  8
LAYER1
 10
12.5833
 20
5.3784
 30
0
 70
     0
  0
VERTEX
  8
LAYER1
 10
12.6111
 20
5.4061
 30
0
 70
     0
  0
SEQEND
  0
ENDBLK
  8
LAYER1
  0
BLOCK
  8
LAYER1
  2
Group100
 70
     0
 10
0
 20
0
 30
0
  0
INSERT
  8
LAYER1
  2
Group97
 10
0
 20
0
 30
0
  0
INSERT
  8
LAYER1
  2
Group98
 10
0
 20
0
 30
0
  0
INSERT
  8
LAYER1
  2
Group99
 10
0
 20
0
 30
0
  0
ENDBLK
  8
LAYER1
  0
BLOCK
  8
LAYER1
  2
Group101
 70
     0
 10
0
 20
0
 30
0
  0
POLYLINE
  8
LAYER1
  6
CONTINUOUS
 62
     0
 66
     1
 70
     0
 40
0.0039
 41
0.0039
  0
VERTEX
  8
LAYER1
 10
10.3194
 20
3.9895
 30
0
 70
     0
  0
VERTEX
  8
LAYER1
 10
12.3333
 20
3.9895
 30
0
 70
     0
  0
VERTEX
  8
LAYER1
 10
12.3333
 20
3.8923
 30
0
 70
     0
  0
VERTEX
  8
LAYER1
 10
10.3194
 20
3.8923
 30
0
 70
     0
  0
VERTEX
  8
LAYER1
 10
10.3194
 20
3.9895
 30
0
 70
     0
  0
SEQEND
  0
LINE
  8
LAYER1
  6
CONTINUOUS
 62
     7
 10
10.3194
 20
3.9895
 30
0
 11
10.3194
 21
3.9061
 31
0
  0
ENDBLK
  8
LAYER1
  0
BLOCK
  8
LAYER1
  2
Group102
 70
     0
 10
0
 20
0
 30
0
  0
POLYLINE
  8
LAYER1
  6
CONTINUOUS
 62
     7
 66
     1
 70
     0
 40
0.0039
 41
0.0039
  0
VERTEX
  8
LAYER1
 10
10.3194
 20
3.9756
 30
0
 70
     0
  0
VERTEX
  8
LAYER1
 10
12.3333
 20
3.9756
 30
0
 70
     0
  0
VERTEX
  8
LAYER1
 10
12.3333
 20
3.92
 30
0
 70
     0
  0
VERTEX
  8
LAYER1
 10
10.3194
 20
3.92
 30
0
 70
     0
  0
VERTEX
  8
LAYER1
 10
10.3194
 20
3.9756
 30
0
 70
     0
  0
SEQEND
  0
INSERT
  8
LAYER1
  2
Group101
 10
0
 20
0
 30
0
  0
ENDBLK
  8
LAYER1
  0
BLOCK
  8
LAYER1
  2
Group103
 70
     0
 10
0
 20
0
 30
0
  0
POLYLINE
  8
LAYER1
  6
CONTINUOUS
 62
     0
 66
     1
 70
     0
 40
0.0039
 41
0.0039
  0
VERTEX
  8
LAYER1
 10
8.8611
 20
3.1978
 30
0
 70
     0
  0
VERTEX
  8
LAYER1
 10
11.125
 20
3.1978
 30
0
 70
     0
  0
VERTEX
  8
LAYER1
 10
11.125
 20
3.1006
 30
0
 70
     0
  0
VERTEX
  8
LAYER1
 10
8.8611
 20
3.1006
 30
0
 70
     0
  0
VERTEX
  8
LAYER1
 10
8.8611
 20
3.1978
 30
0
 70
     0
  0
SEQEND
  0
LINE
  8
LAYER1
  6
CONTINUOUS
 62
     7
 10
8.8611
 20
3.1978
 30
0
 11
8.8611
 21
3.1145
 31
0
  0
ENDBLK
  8
LAYER1
  0
BLOCK
  8
LAYER1
  2
Group104
 70
     0
 10
0
 20
0
 30
0
  0
LINE
  8
LAYER1
  6
CONTINUOUS
 62
     7
 10
12.3194
 20
3.9895
 30
0
 11
12.3194
 21
3.9061
 31
0
  0
POLYLINE
  8
LAYER1
  6
CONTINUOUS
 62
     7
 66
     1
 70
     0
 40
0.0039
 41
0.0039
  0
VERTEX
  8
LAYER1
 10
8.8611
 20
3.1839
 30
0
 70
     0
  0
VERTEX
  8
LAYER1
 10
11.125
 20
3.1839
 30
0
 70
     0
  0
VERTEX
  8
LAYER1
 10
11.125
 20
3.1284
 30
0
 70
     0
  0
VERTEX
  8
LAYER1
 10
8.8611
 20
3.1284
 30
0
 70
     0
  0
VERTEX
  8
LAYER1
 10
8.8611
 20
3.1839
 30
0
 70
     0
  0
SEQEND
  0
INSERT
  8
LAYER1
  2
Group103
 10
0
 20
0
 30
0
  0
ENDBLK
  8
LAYER1
  0
BLOCK
  8
LAYER1
  2
Group105
 70
     0
 10
0
 20
0
 30
0
  0
POLYLINE
  8
LAYER1
  6
CONTINUOUS
 62
     0
 66
     1
 70
     0
 40
0.0039
 41
0.0039
  0
VERTEX
  8
LAYER1
 10
11.4028
 20
3.1978
 30
0
 70
     0
  0
VERTEX
  8
LAYER1
 10
13.9167
 20
3.1978
 30
0
 70
     0
  0
VERTEX
  8
LAYER1
 10
13.9167
 20
3.1006
 30
0
 70
     0
  0
VERTEX
  8
LAYER1
 10
11.4028
 20
3.1006
 30
0
 70
     0
  0
VERTEX
  8
LAYER1
 10
11.4028
 20
3.1978
 30
0
 70
     0
  0
SEQEND
  0
LINE
  8
LAYER1
  6
CONTINUOUS
 62
     7
 10
11.4028
 20
3.1978
 30
0
 11
11.4028
 21
3.1145
 31
0
  0
ENDBLK
  8
LAYER1
  0
BLOCK
  8
LAYER1
  2
Group106
 70
     0
 10
0
 20
0
 30
0
  0
LINE
  8
LAYER1
  6
CONTINUOUS
 62
     7
 10
11.1111
 20
3.1978
 30
0
 11
11.1111
 21
3.1145
 31
0
  0
POLYLINE
  8
LAYER1
  6
CONTINUOUS
 62
     7
 66
     1
 70
     0
 40
0.0039
 41
0.0039
  0
VERTEX
  8
LAYER1
 10
11.4028
 20
3.1839
 30
0
 70
     0
  0
VERTEX
  8
LAYER1
 10
13.9167
 20
3.1839
 30
0
 70
     0
  0
VERTEX
  8
LAYER1
 10
13.9167
 20
3.1284
 30
0
 70
     0
  0
VERTEX
  8
LAYER1
 10
11.4028
 20
3.1284
 30
0
 70
     0
  0
VERTEX
  8
LAYER1
 10
11.4028
 20
3.1839
 30
0
 70
     0
  0
SEQEND
  0
INSERT
  8
LAYER1
  2
Group105
 10
0
 20
0
 30
0
  0
ENDBLK
  8
LAYER1
  0
BLOCK
  8
LAYER1
  2
Group107
 70
     0
 10
0
 20
0
 30
0
  0
POLYLINE
  8
LAYER1
  6
CONTINUOUS
 62
     0
 66
     1
 70
     0
 40
0.0039
 41
0.0039
  0
VERTEX
  8
LAYER1
 10
9.4861
 20
2.2395
 30
0
 70
     0
  0
VERTEX
  8
LAYER1
 10
13.5
 20
2.2395
 30
0
 70
     0
  0
VERTEX
  8
LAYER1
 10
13.5
 20
2.1423
 30
0
 70
     0
  0
VERTEX
  8
LAYER1
 10
9.4861
 20
2.1423
 30
0
 70
     0
  0
VERTEX
  8
LAYER1
 10
9.4861
 20
2.2395
 30
0
 70
     0
  0
SEQEND
  0
LINE
  8
LAYER1
  6
CONTINUOUS
 62
     7
 10
9.4861
 20
2.2395
 30
0
 11
9.4861
 21
2.1561
 31
0
  0
ENDBLK
  8
LAYER1
  0
BLOCK
  8
LAYER1
  2
Group108
 70
     0
 10
0
 20
0
 30
0
  0
LINE
  8
LAYER1
  6
CONTINUOUS
 62
     7
 10
13.9028
 20
3.1978
 30
0
 11
13.9028
 21
3.1145
 31
0
  0
POLYLINE
  8
LAYER1
  6
CONTINUOUS
 62
     7
 66
     1
 70
     0
 40
0.0039
 41
0.0039
  0
VERTEX
  8
LAYER1
 10
9.4861
 20
2.2256
 30
0
 70
     0
  0
VERTEX
  8
LAYER1
 10
13.5
 20
2.2256
 30
0
 70
     0
  0
VERTEX
  8
LAYER1
 10
13.5
 20
2.17
 30
0
 70
     0
  0
VERTEX
  8
LAYER1
 10
9.4861
 20
2.17
 30
0
 70
     0
  0
VERTEX
  8
LAYER1
 10
9.4861
 20
2.2256
 30
0
 70
     0
  0
SEQEND
  0
INSERT
  8
LAYER1
  2
Group107
 10
0
 20
0
 30
0
  0
ENDBLK
  8
LAYER1
  0
BLOCK
  8
LAYER1
  2
Group109
 70
     0
 10
0
 20
0
 30
0
  0
POLYLINE
  8
LAYER1
  6
CONTINUOUS
 62
     0
 66
     1
 70
     0
 40
0.0039
 41
0.0039
  0
VERTEX
  8
LAYER1
 10
9.2361
 20
1.4617
 30
0
 70
     0
  0
VERTEX
  8
LAYER1
 10
13.75
 20
1.4617
 30
0
 70
     0
  0
VERTEX
  8
LAYER1
 10
13.75
 20
1.3645
 30
0
 70
     0
  0
VERTEX
  8
LAYER1
 10
9.2361
 20
1.3645
 30
0
 70
     0
  0
VERTEX
  8
LAYER1
 10
9.2361
 20
1.4617
 30
0
 70
     0
  0
SEQEND
  0
LINE
  8
LAYER1
  6
CONTINUOUS
 62
     7
 10
9.2361
 20
1.4617
 30
0
 11
9.2361
 21
1.3784
 31
0
  0
ENDBLK
  8
LAYER1
  0
BLOCK
  8
LAYER1
  2
Group110
 70
     0
 10
0
 20
0
 30
0
  0
LINE
  8
LAYER1
  6
CONTINUOUS
 62
     7
 10
13.4861
 20
2.2395
 30
0
 11
13.4861
 21
2.1561
 31
0
  0
POLYLINE
  8
LAYER1
  6
CONTINUOUS
 62
     7
 66
     1
 70
     0
 40
0.0039
 41
0.0039
  0
VERTEX
  8
LAYER1
 10
9.2361
 20
1.4339
 30
0
 70
     0
  0
VERTEX
  8
LAYER1
 10
13.75
 20
1.4339
 30
0
 70
     0
  0
VERTEX
  8
LAYER1
 10
13.75
 20
1.3784
 30
0
 70
     0
  0
VERTEX
  8
LAYER1
 10
9.2361
 20
1.3784
 30
0
 70
     0
  0
VERTEX
  8
LAYER1
 10
9.2361
 20
1.4339
 30
0
 70
     0
  0
SEQEND
  0
INSERT
  8
LAYER1
  2
Group109
 10
0
 20
0
 30
0
  0
ENDBLK
  8
LAYER1
  0
BLOCK
  8
LAYER1
  2
Group111
 70
     0
 10
0
 20
0
 30
0
  0
TEXT
  8
LAYER1
 62
     7
 10
0.2001
 20
10.5654
 30
0
 40
0.125
  1
Doors - 4" Hinged
 50
0
999
Geneva
  0
LINE
  8
LAYER1
  6
CONTINUOUS
 62
     7
 10
13.7361
 20
1.4617
 30
0
 11
13.7361
 21
1.3784
 31
0
  0
LINE
  8
LAYER1
  6
CONTINUOUS
 62
     7
 10
0.2222
 20
10.8089
 30
0
 11
4.7639
 21
10.8089
 31
0
  0
ENDBLK
  8
LAYER1
  0
BLOCK
  8
LAYER1
  2
Group112
 70
     0
 10
0
 20
0
 30
0
  0
TEXT
  8
LAYER1
 62
     7
 10
8.6445
 20
10.5654
 30
0
 40
0.125
  1
Doors - 4" Sliding, Pocket, Folding and Garage
 50
0
999
Geneva
  0
LINE
  8
LAYER1
  6
CONTINUOUS
 62
     7
 10
0.2639
 20
10.4895
 30
0
 11
4.8056
 21
10.4895
 31
0
  0
LINE
  8
LAYER1
  6
CONTINUOUS
 62
     7
 10
8.6389
 20
10.8089
 30
0
 11
13.3333
 21
10.8089
 31
0
  0
ENDBLK
  8
LAYER1
  0
BLOCK
  8
LAYER1
  2
Group113
 70
     0
 10
0
 20
0
 30
0
  0
TEXT
  8
LAYER1
 62
     7
 10
2.5751
 20
0.0515
 30
0
 40
0.1389
  1
- 4-25 -
 50
0
999
Geneva
  0
TEXT
  8
LAYER1
 62
     7
 10
10.7973
 20
0.0515
 30
0
 40
0.1389
  1
- 4-26 -
 50
0
999
Geneva
  0
INSERT
  8
LAYER1
  2
Group3
 10
0
 20
0
 30
0
  0
TEXT
  8
LAYER1
 62
     7
 10
2.089
 20
8.9404
 30
0
 40
0.0833
  1
45 32"
 50
0
999
Geneva
  0
INSERT
  8
LAYER1
  2
Group5
 10
0
 20
0
 30
0
  0
TEXT
  8
LAYER1
 62
     7
 10
3.3668
 20
8.9404
 30
0
 40
0.0833
  1
45 30"
 50
0
999
Geneva
  0
INSERT
  8
LAYER1
  2
Group7
 10
0
 20
0
 30
0
  0
TEXT
  8
LAYER1
 62
     7
 10
0.8112
 20
8.9404
 30
0
 40
0.0833
  1
45 36"
 50
0
999
Geneva
  0
TEXT
  8
LAYER1
 62
     7
 10
4.7973
 20
8.9404
 30
0
 40
0.0833
  1
45 28"
 50
0
999
Geneva
  0
TEXT
  8
LAYER1
 62
     7
 10
2.089
 20
7.4404
 30
0
 40
0.0833
  1
90 32"
 50
0
999
Geneva
  0
INSERT
  8
LAYER1
  2
Group10
 10
0
 20
0
 30
0
  0
TEXT
  8
LAYER1
 62
     7
 10
3.3529
 20
7.4404
 30
0
 40
0.0833
  1
90 30"
 50
0
999
Geneva
  0
INSERT
  8
LAYER1
  2
Group13
 10
0
 20
0
 30
0
  0
TEXT
  8
LAYER1
 62
     7
 10
0.8112
 20
7.4404
 30
0
 40
0.0833
  1
90 36"
 50
0
999
Geneva
  0
INSERT
  8
LAYER1
  2
Group15
 10
0
 20
0
 30
0
  0
TEXT
  8
LAYER1
 62
     7
 10
4.7973
 20
7.4404
 30
0
 40
0.0833
  1
90 28"
 50
0
999
Geneva
  0
TEXT
  8
LAYER1
 62
     7
 10
0.6445
 20
8.7737
 30
0
 40
0.0833
  1
45 36" Door
 50
0
999
Geneva
  0
TEXT
  8
LAYER1
 62
     7
 10
1.9223
 20
8.7737
 30
0
 40
0.0833
  1
45 32" Door
 50
0
999
Geneva
  0
TEXT
  8
LAYER1
 62
     7
 10
0.6445
 20
7.2876
 30
0
 40
0.0833
  1
90 36" Door
 50
0
999
Geneva
  0
TEXT
  8
LAYER1
 62
     7
 10
1.9223
 20
7.2876
 30
0
 40
0.0833
  1
90 32" Door
 50
0
999
Geneva
  0
TEXT
  8
LAYER1
 62
     7
 10
3.1862
 20
7.2876
 30
0
 40
0.0833
  1
90 30" Door
 50
0
999
Geneva
  0
TEXT
  8
LAYER1
 62
     7
 10
4.6306
 20
7.2876
 30
0
 40
0.0833
  1
90 28" Door
 50
0
999
Geneva
  0
TEXT
  8
LAYER1
 62
     7
 10
4.6306
 20
8.7737
 30
0
 40
0.0833
  1
45 28" Door
 50
0
999
Geneva
  0
TEXT
  8
LAYER1
 62
     7
 10
3.1862
 20
8.7737
 30
0
 40
0.0833
  1
45 30" Door
 50
0
999
Geneva
  0
TEXT
  8
LAYER1
 62
     7
 10
2.0473
 20
4.982
 30
0
 40
0.0833
  1
180 32"
 50
0
999
Geneva
  0
TEXT
  8
LAYER1
 62
     7
 10
3.3112
 20
4.982
 30
0
 40
0.0833
  1
180 30"
 50
0
999
Geneva
  0
TEXT
  8
LAYER1
 62
     7
 10
0.7695
 20
4.982
 30
0
 40
0.0833
  1
180 36"
 50
0
999
Geneva
  0
TEXT
  8
LAYER1
 62
     7
 10
4.7556
 20
4.982
 30
0
 40
0.0833
  1
180 28"
 50
0
999
Geneva
  0
TEXT
  8
LAYER1
 62
     7
 10
0.6029
 20
4.8292
 30
0
 40
0.0833
  1
180 36" Door
 50
0
999
Geneva
  0
TEXT
  8
LAYER1
 62
     7
 10
1.8806
 20
4.8292
 30
0
 40
0.0833
  1
180 32" Door
 50
0
999
Geneva
  0
TEXT
  8
LAYER1
 62
     7
 10
3.1584
 20
4.8292
 30
0
 40
0.0833
  1
180 30" Door
 50
0
999
Geneva
  0
TEXT
  8
LAYER1
 62
     7
 10
4.589
 20
4.8292
 30
0
 40
0.0833
  1
180 28" Door
 50
0
999
Geneva
  0
INSERT
  8
LAYER1
  2
Group20
 10
0
 20
0
 30
0
  0
INSERT
  8
LAYER1
  2
Group23
 10
0
 20
0
 30
0
  0
INSERT
  8
LAYER1
  2
Group26
 10
0
 20
0
 30
0
  0
INSERT
  8
LAYER1
  2
Group29
 10
0
 20
0
 30
0
  0
TEXT
  8
LAYER1
 62
     7
 10
3.0473
 20
3.3154
 30
0
 40
0.0833
  1
Double 64"
 50
0
999
Geneva
  0
TEXT
  8
LAYER1
 62
     7
 10
4.7556
 20
3.2876
 30
0
 40
0.0833
  1
Double 60"
 50
0
999
Geneva
  0
TEXT
  8
LAYER1
 62
     7
 10
1.1029
 20
3.3154
 30
0
 40
0.0833
  1
Double 72"
 50
0
999
Geneva
  0
TEXT
  8
LAYER1
 62
     7
 10
1.089
 20
3.1487
 30
0
 40
0.0833
  1
Double 72"
 50
0
999
Geneva
  0
TEXT
  8
LAYER1
 62
     7
 10
3.0473
 20
3.1348
 30
0
 40
0.0833
  1
Double 64"
 50
0
999
Geneva
  0
TEXT
  8
LAYER1
 62
     7
 10
3.7367
 20
3.1348
 30
0
 40
0.0833
  1
 
 50
0
999
Geneva
  0
TEXT
  8
LAYER1
 62
     7
 10
4.7418
 20
3.0931
 30
0
 40
0.0833
  1
Double 60"
 50
0
999
Geneva
  0
TEXT
  8
LAYER1
 62
     7
 10
5.4311
 20
3.0931
 30
0
 40
0.0833
  1
 
 50
0
999
Geneva
  0
INSERT
  8
LAYER1
  2
Group32
 10
0
 20
0
 30
0
  0
INSERT
  8
LAYER1
  2
Group37
 10
0
 20
0
 30
0
  0
INSERT
  8
LAYER1
  2
Group39
 10
0
 20
0
 30
0
  0
TEXT
  8
LAYER1
 62
     7
 10
0.9223
 20
1.4265
 30
0
 40
0.0833
  1
Hlf Open Dbl 72"
 50
0
999
Geneva
  0
TEXT
  8
LAYER1
 62
     7
 10
0.7834
 20
1.2181
 30
0
 40
0.0833
  1
Half Open Double 72"
 50
0
999
Geneva
  0
INSERT
  8
LAYER1
  2
Group41
 10
0
 20
0
 30
0
  0
TEXT
  8
LAYER1
 62
     7
 10
2.8668
 20
1.4265
 30
0
 40
0.0833
  1
Hlf Open Dbl 64"
 50
0
999
Geneva
  0
TEXT
  8
LAYER1
 62
     7
 10
2.7973
 20
1.2181
 30
0
 40
0.0833
  1
Half Open Double 64"
 50
0
999
Geneva
  0
INSERT
  8
LAYER1
  2
Group43
 10
0
 20
0
 30
0
  0
INSERT
  8
LAYER1
  2
Group45
 10
0
 20
0
 30
0
  0
TEXT
  8
LAYER1
 62
     7
 10
4.5751
 20
1.4126
 30
0
 40
0.0833
  1
Hlf Open Dbl 60"
 50
0
999
Geneva
  0
TEXT
  8
LAYER1
 62
     7
 10
4.464
 20
1.2042
 30
0
 40
0.0833
  1
Half Open Double 60"
 50
0
999
Geneva
  0
TEXT
  8
LAYER1
 62
     7
 10
10.1168
 20
9.5515
 30
0
 40
0.0833
  1
Sliding Dbl 30"
 50
0
999
Geneva
  0
TEXT
  8
LAYER1
 62
     7
 10
9.9918
 20
9.3848
 30
0
 40
0.0833
  1
Sliding 2x30"x80"
 50
0
999
Geneva
  0
TEXT
  8
LAYER1
 62
     7
 10
11.7279
 20
9.5515
 30
0
 40
0.0833
  1
Sliding Dbl 36"
 50
0
999
Geneva
  0
TEXT
  8
LAYER1
 62
     7
 10
11.6029
 20
9.3848
 30
0
 40
0.0833
  1
Sliding 2x36"x80"
 50
0
999
Geneva
  0
TEXT
  8
LAYER1
 62
     7
 10
9.7418
 20
8.7459
 30
0
 40
0.0833
  1
Sliding Dbl 48"
 50
0
999
Geneva
  0
TEXT
  8
LAYER1
 62
     7
 10
9.6168
 20
8.5792
 30
0
 40
0.0833
  1
Sliding 2x48"x80"
 50
0
999
Geneva
  0
INSERT
  8
LAYER1
  2
Group48
 10
0
 20
0
 30
0
  0
INSERT
  8
LAYER1
  2
Group53
 10
0
 20
0
 30
0
  0
INSERT
  8
LAYER1
  2
Group58
 10
0
 20
0
 30
0
  0
INSERT
  8
LAYER1
  2
Group61
 10
0
 20
0
 30
0
  0
LINE
  8
LAYER1
  6
CONTINUOUS
 62
     7
 10
1.4444
 20
3.4895
 30
0
 11
1.4444
 21
3.4061
 31
0
  0
INSERT
  8
LAYER1
  2
Group62
 10
0
 20
0
 30
0
  0
TEXT
  8
LAYER1
 62
     7
 10
12.3806
 20
8.7459
 30
0
 40
0.0833
  1
Sliding Trp 36"
 50
0
999
Geneva
  0
TEXT
  8
LAYER1
 62
     7
 10
12.2695
 20
8.5792
 30
0
 40
0.0833
  1
Sliding 3x36"x80"
 50
0
999
Geneva
  0
TEXT
  8
LAYER1
 62
     7
 10
11.0056
 20
8.0098
 30
0
 40
0.0833
  1
Sliding Trp 48"
 50
0
999
Geneva
  0
TEXT
  8
LAYER1
 62
     7
 10
10.8945
 20
7.8431
 30
0
 40
0.0833
  1
Sliding 3x48"x80"
 50
0
999
Geneva
  0
INSERT
  8
LAYER1
  2
Group68
 10
0
 20
0
 30
0
  0
INSERT
  8
LAYER1
  2
Group73
 10
0
 20
0
 30
0
  0
TEXT
  8
LAYER1
 62
     7
 10
10.589
 20
7.1626
 30
0
 40
0.0833
  1
Pocket 32"
 50
0
999
Geneva
  0
INSERT
  8
LAYER1
  2
Group75
 10
0
 20
0
 30
0
  0
TEXT
  8
LAYER1
 62
     7
 10
11.7695
 20
7.1626
 30
0
 40
0.0833
  1
Pocket 30"
 50
0
999
Geneva
  0
INSERT
  8
LAYER1
  2
Group77
 10
0
 20
0
 30
0
  0
TEXT
  8
LAYER1
 62
     7
 10
9.1584
 20
7.1626
 30
0
 40
0.0833
  1
Pocket 36"
 50
0
999
Geneva
  0
INSERT
  8
LAYER1
  2
Group79
 10
0
 20
0
 30
0
  0
TEXT
  8
LAYER1
 62
     7
 10
12.9501
 20
7.1626
 30
0
 40
0.0833
  1
Pocket 28"
 50
0
999
Geneva
  0
TEXT
  8
LAYER1
 62
     7
 10
9.1584
 20
7.0098
 30
0
 40
0.0833
  1
Pocket 36"
 50
0
999
Geneva
  0
TEXT
  8
LAYER1
 62
     7
 10
10.589
 20
7.0098
 30
0
 40
0.0833
  1
Pocket 32"
 50
0
999
Geneva
  0
TEXT
  8
LAYER1
 62
     7
 10
11.7834
 20
7.0098
 30
0
 40
0.0833
  1
Pocket 30"
 50
0
999
Geneva
  0
TEXT
  8
LAYER1
 62
     7
 10
12.964
 20
7.0098
 30
0
 40
0.0833
  1
Pocket 28"
 50
0
999
Geneva
  0
INSERT
  8
LAYER1
  2
Group81
 10
0
 20
0
 30
0
  0
TEXT
  8
LAYER1
 62
     7
 10
10.7695
 20
5.9126
 30
0
 40
0.0833
  1
BiFold 1sd 32"
 50
0
999
Geneva
  0
TEXT
  8
LAYER1
 62
     7
 10
12.1445
 20
5.9126
 30
0
 40
0.0833
  1
BiFold 1sd 30"
 50
0
999
Geneva
  0
TEXT
  8
LAYER1
 62
     7
 10
10.6584
 20
5.7598
 30
0
 40
0.0833
  1
Bi-Fold 1 side 32"
 50
0
999
Geneva
  0
TEXT
  8
LAYER1
 62
     7
 10
12.0056
 20
5.7598
 30
0
 40
0.0833
  1
Bi-Fold 1 side  30"
 50
0
999
Geneva
  0
TEXT
  8
LAYER1
 62
     7
 10
9.3112
 20
5.9126
 30
0
 40
0.0833
  1
BiFold 1sd 36"
 50
0
999
Geneva
  0
TEXT
  8
LAYER1
 62
     7
 10
9.2001
 20
5.7598
 30
0
 40
0.0833
  1
Bi-Fold 1 Side 36"
 50
0
999
Geneva
  0
INSERT
  8
LAYER1
  2
Group83
 10
0
 20
0
 30
0
  0
INSERT
  8
LAYER1
  2
Group85
 10
0
 20
0
 30
0
  0
INSERT
  8
LAYER1
  2
Group88
 10
0
 20
0
 30
0
  0
TEXT
  8
LAYER1
 62
     7
 10
10.8668
 20
4.8709
 30
0
 40
0.0833
  1
BiFold 2sd 64"
 50
0
999
Geneva
  0
TEXT
  8
LAYER1
 62
     7
 10
12.5056
 20
4.8709
 30
0
 40
0.0833
  1
BiFold 2sd 60"
 50
0
999
Geneva
  0
TEXT
  8
LAYER1
 62
     7
 10
10.7279
 20
4.7181
 30
0
 40
0.0833
  1
Bi-Fold 2 sides 64"
 50
0
999
Geneva
  0
TEXT
  8
LAYER1
 62
     7
 10
12.339
 20
4.7181
 30
0
 40
0.0833
  1
Bi-Fold 2 sides  60"
 50
0
999
Geneva
  0
TEXT
  8
LAYER1
 62
     7
 10
9.2001
 20
4.8709
 30
0
 40
0.0833
  1
BiFold 2sd 72"
 50
0
999
Geneva
  0
TEXT
  8
LAYER1
 62
     7
 10
9.089
 20
4.7181
 30
0
 40
0.0833
  1
Bi-Fold 2 Side 72"
 50
0
999
Geneva
  0
INSERT
  8
LAYER1
  2
Group92
 10
0
 20
0
 30
0
  0
INSERT
  8
LAYER1
  2
Group96
 10
0
 20
0
 30
0
  0
INSERT
  8
LAYER1
  2
Group100
 10
0
 20
0
 30
0
  0
TEXT
  8
LAYER1
 62
     7
 10
10.8251
 20
3.6626
 30
0
 40
0.0833
  1
Gar Ovr Hd 96"
 50
0
999
Geneva
  0
TEXT
  8
LAYER1
 62
     7
 10
10.6445
 20
3.5098
 30
0
 40
0.0833
  1
Garage Overhead 96"
 50
0
999
Geneva
  0
INSERT
  8
LAYER1
  2
Group102
 10
0
 20
0
 30
0
  0
TEXT
  8
LAYER1
 62
     7
 10
9.4501
 20
2.8709
 30
0
 40
0.0833
  1
Gar Ovr Hd 108"
 50
0
999
Geneva
  0
TEXT
  8
LAYER1
 62
     7
 10
9.2695
 20
2.7181
 30
0
 40
0.0833
  1
Garage Overhead 108"
 50
0
999
Geneva
  0
INSERT
  8
LAYER1
  2
Group104
 10
0
 20
0
 30
0
  0
TEXT
  8
LAYER1
 62
     7
 10
12.1168
 20
2.8709
 30
0
 40
0.0833
  1
Gar Ovr Hd 120"
 50
0
999
Geneva
  0
TEXT
  8
LAYER1
 62
     7
 10
11.9362
 20
2.7181
 30
0
 40
0.0833
  1
Garage Overhead 120"
 50
0
999
Geneva
  0
INSERT
  8
LAYER1
  2
Group106
 10
0
 20
0
 30
0
  0
TEXT
  8
LAYER1
 62
     7
 10
10.9918
 20
1.9126
 30
0
 40
0.0833
  1
Gar Dbl Ovd 16'
 50
0
999
Geneva
  0
TEXT
  8
LAYER1
 62
     7
 10
10.6029
 20
1.7598
 30
0
 40
0.0833
  1
Garage Double Overhead 16'
 50
0
999
Geneva
  0
INSERT
  8
LAYER1
  2
Group108
 10
0
 20
0
 30
0
  0
TEXT
  8
LAYER1
 62
     7
 10
10.9918
 20
1.1765
 30
0
 40
0.0833
  1
Gar Dbl Ovd 18'
 50
0
999
Geneva
  0
TEXT
  8
LAYER1
 62
     7
 10
10.6029
 20
1.0237
 30
0
 40
0.0833
  1
Garage Double Overhead 18'
 50
0
999
Geneva
  0
INSERT
  8
LAYER1
  2
Group110
 10
0
 20
0
 30
0
  0
INSERT
  8
LAYER1
  2
Group111
 10
0
 20
0
 30
0
  0
INSERT
  8
LAYER1
  2
Group112
 10
0
 20
0
 30
0
  0
TEXT
  8
LAYER1
 62
     7
 10
0.1862
 20
0.1209
 30
0
 40
0.0833
  1
Scale 1/4in = 1ft  Printed at 70%
 50
0
999
Geneva
  0
TEXT
  8
LAYER1
 62
     7
 10
4.2418
 20
0.2737
 30
0
 40
0.0833
  1
©1989,1990,1991,1992
 50
0
999
Geneva
  0
TEXT
  8
LAYER1
 62
     7
 10
4.1168
 20
0.107
 30
0
 40
0.0833
  1
Advanced System Design, Inc.
 50
0
999
Geneva
  0
TEXT
  8
LAYER1
 62
     7
 10
8.6168
 20
0.1209
 30
0
 40
0.0833
  1
Scale 1/4in = 1ft  Printed at 70%
 50
0
999
Geneva
  0
TEXT
  8
LAYER1
 62
     7
 10
12.714
 20
0.2737
 30
0
 40
0.0833
  1
©1989,1990,1991,1992
 50
0
999
Geneva
  0
TEXT
  8
LAYER1
 62
     7
 10
12.589
 20
0.107
 30
0
 40
0.0833
  1
Advanced System Design, Inc.
 50
0
999
Geneva
  0
TEXT
  8
LAYER1
 62
     7
 10
0.8529
 20
8.607
 30
0
 40
0.0833
  1
15100
 50
0
999
Geneva
  0
TEXT
  8
LAYER1
 62
     7
 10
2.1306
 20
8.607
 30
0
 40
0.0833
  1
15101
 50
0
999
Geneva
  0
TEXT
  8
LAYER1
 62
     7
 10
3.4084
 20
8.607
 30
0
 40
0.0833
  1
15102
 50
0
999
Geneva
  0
TEXT
  8
LAYER1
 62
     7
 10
4.8529
 20
8.607
 30
0
 40
0.0833
  1
15103
 50
0
999
Geneva
  0
TEXT
  8
LAYER1
 62
     7
 10
0.8529
 20
7.0792
 30
0
 40
0.0833
  1
15104
 50
0
999
Geneva
  0
TEXT
  8
LAYER1
 62
     7
 10
2.1445
 20
7.0792
 30
0
 40
0.0833
  1
15105
 50
0
999
Geneva
  0
TEXT
  8
LAYER1
 62
     7
 10
3.4084
 20
7.0792
 30
0
 40
0.0833
  1
15106
 50
0
999
Geneva
  0
TEXT
  8
LAYER1
 62
     7
 10
4.8529
 20
7.0792
 30
0
 40
0.0833
  1
15107
 50
0
999
Geneva
  0
TEXT
  8
LAYER1
 62
     7
 10
0.8529
 20
4.6348
 30
0
 40
0.0833
  1
15108
 50
0
999
Geneva
  0
TEXT
  8
LAYER1
 62
     7
 10
2.1445
 20
4.6348
 30
0
 40
0.0833
  1
15109
 50
0
999
Geneva
  0
TEXT
  8
LAYER1
 62
     7
 10
3.4084
 20
4.6348
 30
0
 40
0.0833
  1
15110
 50
0
999
Geneva
  0
TEXT
  8
LAYER1
 62
     7
 10
4.8529
 20
4.6348
 30
0
 40
0.0833
  1
15111
 50
0
999
Geneva
  0
TEXT
  8
LAYER1
 62
     7
 10
1.2279
 20
2.9404
 30
0
 40
0.0833
  1
15112
 50
0
999
Geneva
  0
TEXT
  8
LAYER1
 62
     7
 10
3.1723
 20
2.9404
 30
0
 40
0.0833
  1
15113
 50
0
999
Geneva
  0
TEXT
  8
LAYER1
 62
     7
 10
4.8806
 20
2.9404
 30
0
 40
0.0833
  1
15114
 50
0
999
Geneva
  0
TEXT
  8
LAYER1
 62
     7
 10
1.2279
 20
1.0237
 30
0
 40
0.0833
  1
15115
 50
0
999
Geneva
  0
TEXT
  8
LAYER1
 62
     7
 10
3.1723
 20
1.0237
 30
0
 40
0.0833
  1
15116
 50
0
999
Geneva
  0
TEXT
  8
LAYER1
 62
     7
 10
4.8806
 20
1.0237
 30
0
 40
0.0833
  1
15117
 50
0
999
Geneva
  0
TEXT
  8
LAYER1
 62
     7
 10
10.3668
 20
9.2042
 30
0
 40
0.0833
  1
15400
 50
0
999
Geneva
  0
TEXT
  8
LAYER1
 62
     7
 10
11.9918
 20
9.2042
 30
0
 40
0.0833
  1
15401
 50
0
999
Geneva
  0
TEXT
  8
LAYER1
 62
     7
 10
9.9918
 20
8.4265
 30
0
 40
0.0833
  1
15402
 50
0
999
Geneva
  0
TEXT
  8
LAYER1
 62
     7
 10
12.6445
 20
8.4265
 30
0
 40
0.0833
  1
15403
 50
0
999
Geneva
  0
TEXT
  8
LAYER1
 62
     7
 10
11.2695
 20
7.6626
 30
0
 40
0.0833
  1
15404
 50
0
999
Geneva
  0
TEXT
  8
LAYER1
 62
     7
 10
9.2973
 20
6.8154
 30
0
 40
0.0833
  1
15500
 50
0
999
Geneva
  0
TEXT
  8
LAYER1
 62
     7
 10
10.7279
 20
6.8154
 30
0
 40
0.0833
  1
15501
 50
0
999
Geneva
  0
TEXT
  8
LAYER1
 62
     7
 10
11.9084
 20
6.8154
 30
0
 40
0.0833
  1
15502
 50
0
999
Geneva
  0
TEXT
  8
LAYER1
 62
     7
 10
13.1029
 20
6.8154
 30
0
 40
0.0833
  1
15503
 50
0
999
Geneva
  0
TEXT
  8
LAYER1
 62
     7
 10
9.5612
 20
5.5792
 30
0
 40
0.0833
  1
15600
 50
0
999
Geneva
  0
TEXT
  8
LAYER1
 62
     7
 10
11.0195
 20
5.5792
 30
0
 40
0.0833
  1
15601
 50
0
999
Geneva
  0
TEXT
  8
LAYER1
 62
     7
 10
12.3945
 20
5.5792
 30
0
 40
0.0833
  1
15602
 50
0
999
Geneva
  0
TEXT
  8
LAYER1
 62
     7
 10
9.4501
 20
4.5098
 30
0
 40
0.0833
  1
15603
 50
0
999
Geneva
  0
TEXT
  8
LAYER1
 62
     7
 10
11.1168
 20
4.5098
 30
0
 40
0.0833
  1
15604
 50
0
999
Geneva
  0
TEXT
  8
LAYER1
 62
     7
 10
12.7556
 20
4.5098
 30
0
 40
0.0833
  1
15605
 50
0
999
Geneva
  0
TEXT
  8
LAYER1
 62
     7
 10
11.1029
 20
3.357
 30
0
 40
0.0833
  1
15650
 50
0
999
Geneva
  0
TEXT
  8
LAYER1
 62
     7
 10
9.7695
 20
2.4959
 30
0
 40
0.0833
  1
15651
 50
0
999
Geneva
  0
TEXT
  8
LAYER1
 62
     7
 10
12.4362
 20
2.4959
 30
0
 40
0.0833
  1
15652
 50
0
999
Geneva
  0
TEXT
  8
LAYER1
 62
     7
 10
11.2695
 20
1.5654
 30
0
 40
0.0833
  1
15653
 50
0
999
Geneva
  0
TEXT
  8
LAYER1
 62
     7
 10
11.2695
 20
0.7876
 30
0
 40
0.0833
  1
15654
 50
0
999
Geneva
  0
ENDBLK
  8
LAYER1
  0
ENDSEC
  0
SECTION
  2
ENTITIES
  0
INSERT
  8
LAYER1
  2
Group113
 10
0
 20
0
 30
0
  0
ENDSEC
  0
EOF
